  0
SECTION
  2
HEADER
  9
$ACADVER
  1
AC1014
  9
$ACADMAINTVER
 70
     0
  9
$DWGCODEPAGE
  3
ANSI_932
  9
$INSBASE
 10
0.0
 20
0.0
 30
0.0
  9
$EXTMIN
 10
-0.1
 20
11.5
 30
0.0
  9
$EXTMAX
 10
199.9
 20
291.5
 30
0.0
  9
$LIMMIN
 10
0.0
 20
0.0
  9
$LIMMAX
 10
210.0
 20
297.0
  9
$ORTHOMODE
 70
     0
  9
$REGENMODE
 70
     1
  9
$FILLMODE
 70
     1
  9
$QTEXTMODE
 70
     0
  9
$MIRRTEXT
 70
     1
  9
$DRAGMODE
 70
     2
  9
$LTSCALE
 40
1.0
  9
$OSMODE
 70
     0
  9
$ATTMODE
 70
     1
  9
$TEXTSIZE
 40
0.2
  9
$TRACEWID
 40
0.05
  9
$TEXTSTYLE
  7
STANDARD
  9
$CLAYER
  8
LAY-1
  9
$CELTYPE
  6
CONTINUOUS
  9
$CECOLOR
 62
   256
  9
$CELTSCALE
 40
1.0
  9
$DELOBJ
 70
     1
  9
$DISPSILH
 70
     0
  9
$DIMSCALE
 40
1.0
  9
$DIMASZ
 40
0.18
  9
$DIMEXO
 40
0.0625
  9
$DIMDLI
 40
0.38
  9
$DIMRND
 40
0.0
  9
$DIMDLE
 40
0.0
  9
$DIMEXE
 40
0.18
  9
$DIMTP
 40
0.0
  9
$DIMTM
 40
0.0
  9
$DIMTXT
 40
0.18
  9
$DIMCEN
 40
0.09
  9
$DIMTSZ
 40
0.0
  9
$DIMTOL
 70
     0
  9
$DIMLIM
 70
     0
  9
$DIMTIH
 70
     1
  9
$DIMTOH
 70
     1
  9
$DIMSE1
 70
     0
  9
$DIMSE2
 70
     0
  9
$DIMTAD
 70
     0
  9
$DIMZIN
 70
     0
  9
$DIMBLK
  1

  9
$DIMASO
 70
     1
  9
$DIMSHO
 70
     1
  9
$DIMPOST
  1

  9
$DIMAPOST
  1

  9
$DIMALT
 70
     0
  9
$DIMALTD
 70
     2
  9
$DIMALTF
 40
25.4
  9
$DIMLFAC
 40
1.0
  9
$DIMTOFL
 70
     0
  9
$DIMTVP
 40
0.0
  9
$DIMTIX
 70
     0
  9
$DIMSOXD
 70
     0
  9
$DIMSAH
 70
     0
  9
$DIMBLK1
  1

  9
$DIMBLK2
  1

  9
$DIMSTYLE
  2
STANDARD
  9
$DIMCLRD
 70
     0
  9
$DIMCLRE
 70
     0
  9
$DIMCLRT
 70
     0
  9
$DIMTFAC
 40
1.0
  9
$DIMGAP
 40
0.09
  9
$DIMJUST
 70
     0
  9
$DIMSD1
 70
     0
  9
$DIMSD2
 70
     0
  9
$DIMTOLJ
 70
     1
  9
$DIMTZIN
 70
     0
  9
$DIMALTZ
 70
     0
  9
$DIMALTTZ
 70
     0
  9
$DIMFIT
 70
     3
  9
$DIMUPT
 70
     0
  9
$DIMUNIT
 70
     2
  9
$DIMDEC
 70
     4
  9
$DIMTDEC
 70
     4
  9
$DIMALTU
 70
     2
  9
$DIMALTTD
 70
     2
  9
$DIMTXSTY
  7
STANDARD
  9
$DIMAUNIT
 70
     0
  9
$LUNITS
 70
     2
  9
$LUPREC
 70
     4
  9
$SKETCHINC
 40
0.1
  9
$FILLETRAD
 40
0.0
  9
$AUNITS
 70
     0
  9
$AUPREC
 70
     0
  9
$MENU
  1
acad
  9
$ELEVATION
 40
0.0
  9
$PELEVATION
 40
0.0
  9
$THICKNESS
 40
0.0
  9
$LIMCHECK
 70
     0
  9
$BLIPMODE
 70
     1
  9
$CHAMFERA
 40
0.0
  9
$CHAMFERB
 40
0.0
  9
$CHAMFERC
 40
0.0
  9
$CHAMFERD
 40
0.0
  9
$SKPOLY
 70
     0
  9
$TDCREATE
 40
2454515.572795209
  9
$TDUPDATE
 40
2454515.572795209
  9
$TDINDWG
 40
0.0000000000
  9
$TDUSRTIMER
 40
0.0000000000
  9
$USRTIMER
 70
     1
  9
$ANGBASE
 50
0.0
  9
$ANGDIR
 70
     0
  9
$PDMODE
 70
     0
  9
$PDSIZE
 40
0.0
  9
$PLINEWID
 40
0.0
  9
$COORDS
 70
     1
  9
$SPLFRAME
 70
     0
  9
$SPLINETYPE
 70
     6
  9
$SPLINESEGS
 70
     8
  9
$ATTDIA
 70
     0
  9
$ATTREQ
 70
     1
  9
$HANDLING
 70
     1
  9
$HANDSEED
  5
438
  9
$SURFTAB1
 70
     6
  9
$SURFTAB2
 70
     6
  9
$SURFTYPE
 70
     6
  9
$SURFU
 70
     6
  9
$SURFV
 70
     6
  9
$UCSNAME
  2

  9
$UCSORG
 10
0.0
 20
0.0
 30
0.0
  9
$UCSXDIR
 10
1.0
 20
0.0
 30
0.0
  9
$UCSYDIR
 10
0.0
 20
1.0
 30
0.0
  9
$PUCSNAME
  2

  9
$PUCSORG
 10
0.0
 20
0.0
 30
0.0
  9
$PUCSXDIR
 10
1.0
 20
0.0
 30
0.0
  9
$PUCSYDIR
 10
0.0
 20
1.0
 30
0.0
  9
$USERI1
 70
     0
  9
$USERI2
 70
     0
  9
$USERI3
 70
     0
  9
$USERI4
 70
     0
  9
$USERI5
 70
     0
  9
$USERR1
 40
0.0
  9
$USERR2
 40
0.0
  9
$USERR3
 40
0.0
  9
$USERR4
 40
0.0
  9
$USERR5
 40
0.0
  9
$WORLDVIEW
 70
     1
  9
$SHADEDGE
 70
     3
  9
$SHADEDIF
 70
    70
  9
$TILEMODE
 70
     1
  9
$MAXACTVP
 70
    16
  9
$PINSBASE
 10
0.0
 20
0.0
 30
0.0
  9
$PLIMCHECK
 70
     0
  9
$PEXTMIN
 10
1.000000E+20
 20
1.000000E+20
 30
1.000000E+20
  9
$PEXTMAX
 10
-1.000000E+20
 20
-1.000000E+20
 30
-1.000000E+20
  9
$PLIMMIN
 10
0.0
 20
0.0
  9
$PLIMMAX
 10
12.0
 20
9.0
  9
$UNITMODE
 70
     0
  9
$VISRETAIN
 70
     0
  9
$PLINEGEN
 70
     1
  9
$PSLTSCALE
 70
     0
  9
$TREEDEPTH
 70
  3020
  9
$PICKSTYLE
 70
     1
  9
$CMLSTYLE
  2
Standard
  9
$CMLJUST
 70
     0
  9
$CMLSCALE
 40
1.0
  9
$PROXYGRAPHICS
 70
     0
  9
$MEASUREMENT
 70
     0
  0
ENDSEC
  0
SECTION
  2
CLASSES
  0
CLASS
  1
LWPOLYLINE
  2
AcDbPolyline
  3
"AutoCAD"
 90
        0
280
     0
281
     1
  0
CLASS
  1
IMAGE
  2
AcDbRasterImage
  3
ISM
 90
      127
280
     0
281
     1
  0
CLASS
  1
OLE2FRAME
  2
AcDbOle2Frame
  3
""
 90
        0
280
     0
281
     1
  0
CLASS
  1
HATCH
  2
AcDbHatch
  3
"ACAD_SEDONA"
 90
        0
280
     0
281
     1
  0
CLASS
  1
DICTIONARYVAR
  2
AcDbDictionaryVar
  3
"AutoCAD"
 90
        0
280
     0
281
     0
  0
CLASS
  1
RASTERVARIABLES
  2
AcDbRasterVariables
  3
ISM
 90
        0
280
     0
281
     0
  0
CLASS
  1
IMAGEDEF
  2
AcDbRasterImageDef
  3
ISM
 90
        0
280
     0
281
     0
  0
CLASS
  1
IMAGEDEF_REACTOR
  2
AcDbRasterImageDefReactor
  3
ISM
 90
        1
280
     0
281
     0
  0
CLASS
  1
IDBUFFER
  2
AcDbIdBuffer
  3
"Acad"
 90
        0
280
     0
281
     0
  0
CLASS
  1
SPATIAL_FILTER
  2
AcDbSpatialFilter
  3
"Acad"
 90
        0
280
     0
281
     0
  0
CLASS
  1
XRECORD
  2
AcDbXrecord
  3
"<Built In>"
 90
        0
280
     0
281
     0
  0
CLASS
  1
SORTENTSTABLE
  2
AcDbSortentsTable
  3
"AutoCAD"
 90
        0
280
     0
281
     0
  0
CLASS
  1
LAYER_INDEX
  2
AcDbLayerIndex
  3
"Acad"
 90
        0
280
     0
281
     0
  0
CLASS
  1
SPATIAL_INDEX
  2
AcDbSpatialIndex
  3
"Acad"
 90
        0
280
     0
281
     0
  0
CLASS
  1
OBJECT_PTR
  2
CAseDLPNTableRecord
  3
"ASE-LPNTableRecord"
 90
        1
280
     0
281
     0
  0
CLASS
  1
LAYOUT
  2
AcDbLayout
  3
"AutoCAD 2000"
 90
        1
280
     0
281
     0
  0
CLASS
  1
PLOTSETTINGS
  2
AcDbPlotSettings
  3
"AutoCAD 2000"
 90
        1
280
     0
281
     0
  0
CLASS
  1
ACDBDICTIONARYWDFLT
  2
AcDbDictionaryWithDefault
  3
"AutoCAD 2000"
 90
        1
280
     0
281
     0
  0
CLASS
  1
ACDBPLACEHOLDER
  2
AcDbPlaceHolder
  3
"AutoCAD 2000"
 90
        1
280
     0
281
     0
  0
CLASS
  1
VBA_PROJECT
  2
AcDbVbaProject
  3
"acadvba"
 90
        1
280
     0
281
     0
  0
CLASS
  1
WIPEOUT
  2
AcDbWipeout
  3
WipeOut|AutoCAD Express Tool|expresstools@autodesk.com
 90
      127
280
     0
281
     1
  0
CLASS
  1
WIPEOUTVARIABLES
  2
AcDbWipeoutVariables
  3
WipeOut|AutoCAD Express Tool|expresstools@autodesk.com
 90
        0
280
     0
281
     0
  0
CLASS
  1
RTEXT
  2
RText
  3
RText|AutoCAD Express Tool|expresstools@autodesk.com
 90
        0
280
     0
281
     1
  0
CLASS
  1
ARCALIGNEDTEXT
  2
AcDbArcAlignedText
  3
ATEXT|AutoCAD Express Tool|expresstools@autodesk.com
 90
        0
280
     0
281
     1
  0
ENDSEC
  0
SECTION
  2
TABLES
  0
TABLE
  2
VPORT
  5
7
100
AcDbSymbolTable
 70
     1
  0
VPORT
  5
15
100
AcDbSymbolTableRecord
100
AcDbViewportTableRecord
  2
*ACTIVE
 70
     0
 10
0.0
 20
0.0
 11
1.0
 21
1.0
 12
99.9
 22
151.5
 13
0.0
 23
0.0
 14
1.0
 24
1.0
 15
0.0
 25
0.0
 16
0.0
 26
0.0
 36
1.0
 17
0.0
 27
0.0
 37
0.0
 40
280.0
 41
1.722533
 42
50.0
 43
0.0
 44
0.0
 50
0.0
 51
0.0
 71
     0
 72
   100
 73
     1
 74
     1
 75
     0
 76
     0
 77
     0
 78
     0
  0
ENDTAB
  0
TABLE
  2
LTYPE
  5
4
100
AcDbSymbolTable
 70
     9
  0
LTYPE
  5
11
100
AcDbSymbolTableRecord
100
AcDbLinetypeTableRecord
  2
BYBLOCK
 70
    64
  3

 72
    65
 73
     0
 40
0.0
  0
LTYPE
  5
12
100
AcDbSymbolTableRecord
100
AcDbLinetypeTableRecord
  2
BYLAYER
 70
    64
  3

 72
    65
 73
     0
 40
0.0
  0
LTYPE
  5
13
100
AcDbSymbolTableRecord
100
AcDbLinetypeTableRecord
  2
CONTINUOUS
 70
    64
  3
実線
 72
    65
 73
     0
 40
0.0
  0
LTYPE
  5
1D
100
AcDbSymbolTableRecord
100
AcDbLinetypeTableRecord
  2
EXLTYPE1
 70
    64
  3
破線
 72
    65
 73
     2
 40
3.0
 49
2.0
 74
     0
 49
-1.0
 74
     0
  0
LTYPE
  5
1E
100
AcDbSymbolTableRecord
100
AcDbLinetypeTableRecord
  2
EXLTYPE2
 70
    64
  3
点線
 72
    65
 73
     2
 40
2.0
 49
1.0
 74
     0
 49
-1.0
 74
     0
  0
LTYPE
  5
1F
100
AcDbSymbolTableRecord
100
AcDbLinetypeTableRecord
  2
EXLTYPE3
 70
    64
  3
一点鎖線
 72
    65
 73
     4
 40
10.0
 49
7.0
 74
     0
 49
-1.0
 74
     0
 49
1.0
 74
     0
 49
-1.0
 74
     0
  0
LTYPE
  5
20
100
AcDbSymbolTableRecord
100
AcDbLinetypeTableRecord
  2
EXLTYPE4
 70
    64
  3
二点鎖線
 72
    65
 73
     6
 40
12.0
 49
7.0
 74
     0
 49
-1.0
 74
     0
 49
1.0
 74
     0
 49
-1.0
 74
     0
 49
1.0
 74
     0
 49
-1.0
 74
     0
  0
LTYPE
  5
21
100
AcDbSymbolTableRecord
100
AcDbLinetypeTableRecord
  2
EXLTYPE5
 70
    64
  3
三点鎖線
 72
    65
 73
     8
 40
37.0
 49
30.0
 74
     0
 49
-1.0
 74
     0
 49
1.0
 74
     0
 49
-1.0
 74
     0
 49
1.0
 74
     0
 49
-1.0
 74
     0
 49
1.0
 74
     0
 49
-1.0
 74
     0
  0
LTYPE
  5
22
100
AcDbSymbolTableRecord
100
AcDbLinetypeTableRecord
  2
EXLTYPE6
 70
    64
  3
四点鎖線
 72
    65
 73
    10
 40
39.0
 49
30.0
 74
     0
 49
-1.0
 74
     0
 49
1.0
 74
     0
 49
-1.0
 74
     0
 49
1.0
 74
     0
 49
-1.0
 74
     0
 49
1.0
 74
     0
 49
-1.0
 74
     0
 49
1.0
 74
     0
 49
-1.0
 74
     0
  0
ENDTAB
  0
TABLE
  2
LAYER
  5
2
100
AcDbSymbolTable
 70
     4
  0
LAYER
  5
14
100
AcDbSymbolTableRecord
100
AcDbLayerTableRecord
  2
0
 70
     0
 62
     7
  6
CONTINUOUS
  0
LAYER
  5
25
100
AcDbSymbolTableRecord
100
AcDbLayerTableRecord
  2
LAY-1
 70
    64
 62
     7
  6
CONTINUOUS
  0
LAYER
  5
26
100
AcDbSymbolTableRecord
100
AcDbLayerTableRecord
  2
LAY-2
 70
    64
 62
     7
  6
CONTINUOUS
  0
LAYER
  5
27
100
AcDbSymbolTableRecord
100
AcDbLayerTableRecord
  2
LAY-3
 70
    64
 62
     7
  6
CONTINUOUS
  0
ENDTAB
  0
TABLE
  2
STYLE
  5
3
100
AcDbSymbolTable
 70
     3
  0
STYLE
  5
17
100
AcDbSymbolTableRecord
100
AcDbTextStyleTableRecord
  2
STANDARD
 70
     0
 40
0.0
 41
1.0
 50
0.0
 71
     0
 42
0.0
  3
monotxt
  4
extfont
  0
STYLE
  5
23
100
AcDbSymbolTableRecord
100
AcDbTextStyleTableRecord
  2
EXCADSTD
 70
    64
 40
0.0
 41
1.0
 50
0.0
 71
     0
 42
0.2
  3
monotxt
  4
extfont
  0
STYLE
  5
24
100
AcDbSymbolTableRecord
100
AcDbTextStyleTableRecord
  2
EXCADVERT
 70
    68
 40
0.0
 41
1.0
 50
0.0
 71
     0
 42
0.286885
  3
monotxt
  4
extfont
  0
ENDTAB
  0
TABLE
  2
VIEW
  5
5
100
AcDbSymbolTable
 70
     0
  0
ENDTAB
  0
TABLE
  2
UCS
  5
6
100
AcDbSymbolTable
 70
     0
  0
ENDTAB
  0
TABLE
  2
APPID
  5
8
100
AcDbSymbolTable
 70
     1
  0
APPID
  5
16
100
AcDbSymbolTableRecord
100
AcDbRegAppTableRecord
  2
ACAD
 70
     0
  0
ENDTAB
  0
TABLE
  2
DIMSTYLE
  5
9
100
AcDbSymbolTable
 70
     1
  0
DIMSTYLE
105
18
100
AcDbSymbolTableRecord
100
AcDbDimStyleTableRecord
  2
STANDARD
 70
     0
  3

  4

  5

  6

  7

 40
1.0
 41
0.18
 42
0.0625
 43
0.38
 44
0.18
 45
0.0
 46
0.0
 47
0.0
 48
0.0
 71
     0
 72
     0
 73
     1
 74
     1
 75
     0
 76
     0
 77
     0
 78
     0
140
0.18
141
0.09
142
0.0
143
25.4
144
1.0
145
0.0
146
1.0
147
0.09
170
     0
171
     2
172
     1
173
     0
174
     0
175
     0
176
     0
177
     0
178
     0
270
     2
271
     4
272
     4
273
     2
274
     2
275
     0
280
     0
281
     0
282
     0
283
     1
284
     0
285
     0
286
     0
287
     0
288
     0
340
17
  0
ENDTAB
  0
TABLE
  2
BLOCK_RECORD
  5
1
100
AcDbSymbolTable
 70
    14
  0
BLOCK_RECORD
  5
A
100
AcDbSymbolTableRecord
100
AcDbBlockTableRecord
  2
*MODEL_SPACE
  0
BLOCK_RECORD
  5
B
100
AcDbSymbolTableRecord
100
AcDbBlockTableRecord
  2
*PAPER_SPACE
  0
BLOCK_RECORD
  5
28
100
AcDbSymbolTableRecord
100
AcDbBlockTableRecord
  2
_EX_NORM
  0
BLOCK_RECORD
  5
29
100
AcDbSymbolTableRecord
100
AcDbBlockTableRecord
  2
_EX_BNORM
  0
BLOCK_RECORD
  5
2A
100
AcDbSymbolTableRecord
100
AcDbBlockTableRecord
  2
_EX_BCIR
  0
BLOCK_RECORD
  5
2B
100
AcDbSymbolTableRecord
100
AcDbBlockTableRecord
  2
_EX_RCIVIL
  0
BLOCK_RECORD
  5
2C
100
AcDbSymbolTableRecord
100
AcDbBlockTableRecord
  2
_EX_SLANT
  0
BLOCK_RECORD
  5
2D
100
AcDbSymbolTableRecord
100
AcDbBlockTableRecord
  2
_EX_NONE
  0
BLOCK_RECORD
  5
2E
100
AcDbSymbolTableRecord
100
AcDbBlockTableRecord
  2
_EX_CIVIL
  0
BLOCK_RECORD
  5
2F
100
AcDbSymbolTableRecord
100
AcDbBlockTableRecord
  2
_EX_WCIR
  0
BLOCK_RECORD
  5
30
100
AcDbSymbolTableRecord
100
AcDbBlockTableRecord
  2
_EX_WCIR2
  0
BLOCK_RECORD
  5
31
100
AcDbSymbolTableRecord
100
AcDbBlockTableRecord
  2
_EX_WNORM
  0
BLOCK_RECORD
  5
32
100
AcDbSymbolTableRecord
100
AcDbBlockTableRecord
  2
_EX_NNORM
  0
BLOCK_RECORD
  5
33
100
AcDbSymbolTableRecord
100
AcDbBlockTableRecord
  2
_EX_BBOX
  0
BLOCK_RECORD
  5
34
100
AcDbSymbolTableRecord
100
AcDbBlockTableRecord
  2
_EX_WBOX
  0
BLOCK_RECORD
  5
35
100
AcDbSymbolTableRecord
100
AcDbBlockTableRecord
  2
_EX_INTEGRAL
  0
ENDTAB
  0
ENDSEC
  0
SECTION
  2
BLOCKS
  0
BLOCK
  5
D
100
AcDbEntity
  8
0
100
AcDbBlockBegin
  2
*MODEL_SPACE
 70
     0
 10
0.0
 20
0.0
 30
0.0
  3
*MODEL_SPACE
  1

  0
ENDBLK
  5
E
100
AcDbEntity
  8
0
100
AcDbBlockEnd
  0
BLOCK
  5
F
100
AcDbEntity
 67
     1
  8
0
100
AcDbBlockBegin
  2
*PAPER_SPACE
 70
     0
 10
0.0
 20
0.0
 30
0.0
  3
*PAPER_SPACE
  1

  0
ENDBLK
  5
10
100
AcDbEntity
 67
     1
  8
0
100
AcDbBlockEnd
  0
BLOCK
  5
36
100
AcDbEntity
  8
0
100
AcDbBlockBegin
  2
_EX_NORM
 70
     0
 10
0.0
 20
0.0
 30
0.0
  3
_EX_NORM
  1

  0
LINE
  5
37
100
AcDbEntity
  8
0
  6
CONTINUOUS
 62
     0
100
AcDbLine
 10
0.0
 20
0.0
 30
0.0
 11
-1.0
 21
0.0
 31
0.0
  0
LINE
  5
38
100
AcDbEntity
  8
0
  6
CONTINUOUS
 62
     0
100
AcDbLine
 10
0.0
 20
0.0
 30
0.0
 11
-1.0
 21
0.166667
 31
0.0
  0
LINE
  5
39
100
AcDbEntity
  8
0
  6
CONTINUOUS
 62
     0
100
AcDbLine
 10
0.0
 20
0.0
 30
0.0
 11
-1.0
 21
-0.166667
 31
0.0
  0
ENDBLK
  5
3A
100
AcDbEntity
  8
0
100
AcDbBlockEnd
  0
BLOCK
  5
3B
100
AcDbEntity
  8
0
100
AcDbBlockBegin
  2
_EX_BNORM
 70
     0
 10
0.0
 20
0.0
 30
0.0
  3
_EX_BNORM
  1

  0
LINE
  5
3C
100
AcDbEntity
  8
0
  6
CONTINUOUS
 62
     0
100
AcDbLine
 10
0.0
 20
0.0
 30
0.0
 11
-1.0
 21
0.0
 31
0.0
  0
LINE
  5
3D
100
AcDbEntity
  8
0
  6
CONTINUOUS
 62
     0
100
AcDbLine
 10
0.0
 20
0.0
 30
0.0
 11
-1.0
 21
0.166667
 31
0.0
  0
LINE
  5
3E
100
AcDbEntity
  8
0
  6
CONTINUOUS
 62
     0
100
AcDbLine
 10
0.0
 20
0.0
 30
0.0
 11
-1.0
 21
-0.166667
 31
0.0
  0
LINE
  5
3F
100
AcDbEntity
  8
0
  6
CONTINUOUS
 62
     0
100
AcDbLine
 10
0.0
 20
0.0
 30
0.0
 11
-1.0
 21
0.083333
 31
0.0
  0
LINE
  5
40
100
AcDbEntity
  8
0
  6
CONTINUOUS
 62
     0
100
AcDbLine
 10
0.0
 20
0.0
 30
0.0
 11
-1.0
 21
-0.083333
 31
0.0
  0
LINE
  5
41
100
AcDbEntity
  8
0
  6
CONTINUOUS
 62
     0
100
AcDbLine
 10
-1.0
 20
0.166667
 30
0.0
 11
-1.0
 21
-0.166667
 31
0.0
  0
ENDBLK
  5
42
100
AcDbEntity
  8
0
100
AcDbBlockEnd
  0
BLOCK
  5
43
100
AcDbEntity
  8
0
100
AcDbBlockBegin
  2
_EX_BCIR
 70
     0
 10
0.0
 20
0.0
 30
0.0
  3
_EX_BCIR
  1

  0
LINE
  5
44
100
AcDbEntity
  8
0
  6
CONTINUOUS
 62
     0
100
AcDbLine
 10
0.0
 20
0.0
 30
0.0
 11
-1.0
 21
0.0
 31
0.0
  0
CIRCLE
  5
45
100
AcDbEntity
  8
0
  6
CONTINUOUS
 62
     0
100
AcDbCircle
 10
0.0
 20
0.0
 30
0.0
 40
0.5
  0
CIRCLE
  5
46
100
AcDbEntity
  8
0
  6
CONTINUOUS
 62
     0
100
AcDbCircle
 10
0.0
 20
0.0
 30
0.0
 40
0.25
  0
ENDBLK
  5
47
100
AcDbEntity
  8
0
100
AcDbBlockEnd
  0
BLOCK
  5
48
100
AcDbEntity
  8
0
100
AcDbBlockBegin
  2
_EX_RCIVIL
 70
     0
 10
0.0
 20
0.0
 30
0.0
  3
_EX_RCIVIL
  1

  0
LINE
  5
49
100
AcDbEntity
  8
0
  6
CONTINUOUS
 62
     0
100
AcDbLine
 10
0.0
 20
0.0
 30
0.0
 11
-1.0
 21
0.0
 31
0.0
  0
LINE
  5
4A
100
AcDbEntity
  8
0
  6
CONTINUOUS
 62
     0
100
AcDbLine
 10
-1.0
 20
-0.25
 30
0.0
 11
0.0
 21
-0.25
 31
0.0
  0
LINE
  5
4B
100
AcDbEntity
  8
0
  6
CONTINUOUS
 62
     0
100
AcDbLine
 10
-1.0
 20
-0.125
 30
0.0
 11
0.0
 21
-0.125
 31
0.0
  0
ENDBLK
  5
4C
100
AcDbEntity
  8
0
100
AcDbBlockEnd
  0
BLOCK
  5
4D
100
AcDbEntity
  8
0
100
AcDbBlockBegin
  2
_EX_SLANT
 70
     0
 10
0.0
 20
0.0
 30
0.0
  3
_EX_SLANT
  1

  0
LINE
  5
4E
100
AcDbEntity
  8
0
  6
CONTINUOUS
 62
     0
100
AcDbLine
 10
0.0
 20
0.0
 30
0.0
 11
-1.0
 21
0.0
 31
0.0
  0
LINE
  5
4F
100
AcDbEntity
  8
0
  6
CONTINUOUS
 62
     0
100
AcDbLine
 10
0.707107
 20
0.707107
 30
0.0
 11
-0.707107
 21
-0.707107
 31
0.0
  0
ENDBLK
  5
50
100
AcDbEntity
  8
0
100
AcDbBlockEnd
  0
BLOCK
  5
51
100
AcDbEntity
  8
0
100
AcDbBlockBegin
  2
_EX_NONE
 70
     0
 10
0.0
 20
0.0
 30
0.0
  3
_EX_NONE
  1

  0
LINE
  5
52
100
AcDbEntity
  8
0
  6
CONTINUOUS
 62
     0
100
AcDbLine
 10
0.0
 20
0.0
 30
0.0
 11
-1.0
 21
0.0
 31
0.0
  0
ENDBLK
  5
53
100
AcDbEntity
  8
0
100
AcDbBlockEnd
  0
BLOCK
  5
54
100
AcDbEntity
  8
0
100
AcDbBlockBegin
  2
_EX_CIVIL
 70
     0
 10
0.0
 20
0.0
 30
0.0
  3
_EX_CIVIL
  1

  0
LINE
  5
55
100
AcDbEntity
  8
0
  6
CONTINUOUS
 62
     0
100
AcDbLine
 10
0.0
 20
0.0
 30
0.0
 11
-1.0
 21
0.0
 31
0.0
  0
LINE
  5
56
100
AcDbEntity
  8
0
  6
CONTINUOUS
 62
     0
100
AcDbLine
 10
-1.0
 20
0.25
 30
0.0
 11
0.0
 21
0.25
 31
0.0
  0
LINE
  5
57
100
AcDbEntity
  8
0
  6
CONTINUOUS
 62
     0
100
AcDbLine
 10
-1.0
 20
0.125
 30
0.0
 11
0.0
 21
0.125
 31
0.0
  0
ENDBLK
  5
58
100
AcDbEntity
  8
0
100
AcDbBlockEnd
  0
BLOCK
  5
59
100
AcDbEntity
  8
0
100
AcDbBlockBegin
  2
_EX_WCIR
 70
     0
 10
0.0
 20
0.0
 30
0.0
  3
_EX_WCIR
  1

  0
LINE
  5
5A
100
AcDbEntity
  8
0
  6
CONTINUOUS
 62
     0
100
AcDbLine
 10
0.0
 20
0.0
 30
0.0
 11
-1.0
 21
0.0
 31
0.0
  0
CIRCLE
  5
5B
100
AcDbEntity
  8
0
  6
CONTINUOUS
 62
     0
100
AcDbCircle
 10
0.0
 20
0.0
 30
0.0
 40
0.5
  0
ENDBLK
  5
5C
100
AcDbEntity
  8
0
100
AcDbBlockEnd
  0
BLOCK
  5
5D
100
AcDbEntity
  8
0
100
AcDbBlockBegin
  2
_EX_WCIR2
 70
     0
 10
0.0
 20
0.0
 30
0.0
  3
_EX_WCIR2
  1

  0
LINE
  5
5E
100
AcDbEntity
  8
0
  6
CONTINUOUS
 62
     0
100
AcDbLine
 10
-0.5
 20
0.0
 30
0.0
 11
-1.0
 21
0.0
 31
0.0
  0
CIRCLE
  5
5F
100
AcDbEntity
  8
0
  6
CONTINUOUS
 62
     0
100
AcDbCircle
 10
0.0
 20
0.0
 30
0.0
 40
0.5
  0
ENDBLK
  5
60
100
AcDbEntity
  8
0
100
AcDbBlockEnd
  0
BLOCK
  5
61
100
AcDbEntity
  8
0
100
AcDbBlockBegin
  2
_EX_WNORM
 70
     0
 10
0.0
 20
0.0
 30
0.0
  3
_EX_WNORM
  1

  0
LINE
  5
62
100
AcDbEntity
  8
0
  6
CONTINUOUS
 62
     0
100
AcDbLine
 10
-1.0
 20
0.0
 30
0.0
 11
-1.0
 21
0.0
 31
0.0
  0
LINE
  5
63
100
AcDbEntity
  8
0
  6
CONTINUOUS
 62
     0
100
AcDbLine
 10
0.0
 20
0.0
 30
0.0
 11
-1.0
 21
0.166667
 31
0.0
  0
LINE
  5
64
100
AcDbEntity
  8
0
  6
CONTINUOUS
 62
     0
100
AcDbLine
 10
0.0
 20
0.0
 30
0.0
 11
-1.0
 21
-0.166667
 31
0.0
  0
LINE
  5
65
100
AcDbEntity
  8
0
  6
CONTINUOUS
 62
     0
100
AcDbLine
 10
-1.0
 20
0.166667
 30
0.0
 11
-1.0
 21
-0.166667
 31
0.0
  0
ENDBLK
  5
66
100
AcDbEntity
  8
0
100
AcDbBlockEnd
  0
BLOCK
  5
67
100
AcDbEntity
  8
0
100
AcDbBlockBegin
  2
_EX_NNORM
 70
     0
 10
0.0
 20
0.0
 30
0.0
  3
_EX_NNORM
  1

  0
LINE
  5
68
100
AcDbEntity
  8
0
  6
CONTINUOUS
 62
     0
100
AcDbLine
 10
0.0
 20
0.0
 30
0.0
 11
-1.0
 21
0.0
 31
0.0
  0
LINE
  5
69
100
AcDbEntity
  8
0
  6
CONTINUOUS
 62
     0
100
AcDbLine
 10
0.0
 20
0.0
 30
0.0
 11
-1.0
 21
0.166667
 31
0.0
  0
LINE
  5
6A
100
AcDbEntity
  8
0
  6
CONTINUOUS
 62
     0
100
AcDbLine
 10
0.0
 20
0.0
 30
0.0
 11
-1.0
 21
-0.166667
 31
0.0
  0
LINE
  5
6B
100
AcDbEntity
  8
0
  6
CONTINUOUS
 62
     0
100
AcDbLine
 10
-1.0
 20
0.166667
 30
0.0
 11
-1.0
 21
-0.166667
 31
0.0
  0
ENDBLK
  5
6C
100
AcDbEntity
  8
0
100
AcDbBlockEnd
  0
BLOCK
  5
6D
100
AcDbEntity
  8
0
100
AcDbBlockBegin
  2
_EX_BBOX
 70
     0
 10
0.0
 20
0.0
 30
0.0
  3
_EX_BBOX
  1

  0
LINE
  5
6E
100
AcDbEntity
  8
0
  6
CONTINUOUS
 62
     0
100
AcDbLine
 10
0.0
 20
0.0
 30
0.0
 11
-1.0
 21
0.0
 31
0.0
  0
LINE
  5
6F
100
AcDbEntity
  8
0
  6
CONTINUOUS
 62
     0
100
AcDbLine
 10
-0.5
 20
0.5
 30
0.0
 11
0.5
 21
0.5
 31
0.0
  0
LINE
  5
70
100
AcDbEntity
  8
0
  6
CONTINUOUS
 62
     0
100
AcDbLine
 10
0.5
 20
0.5
 30
0.0
 11
0.5
 21
-0.5
 31
0.0
  0
LINE
  5
71
100
AcDbEntity
  8
0
  6
CONTINUOUS
 62
     0
100
AcDbLine
 10
0.5
 20
-0.5
 30
0.0
 11
-0.5
 21
-0.5
 31
0.0
  0
LINE
  5
72
100
AcDbEntity
  8
0
  6
CONTINUOUS
 62
     0
100
AcDbLine
 10
-0.5
 20
-0.5
 30
0.0
 11
-0.5
 21
0.5
 31
0.0
  0
LINE
  5
73
100
AcDbEntity
  8
0
  6
CONTINUOUS
 62
     0
100
AcDbLine
 10
-0.25
 20
0.25
 30
0.0
 11
0.25
 21
0.25
 31
0.0
  0
LINE
  5
74
100
AcDbEntity
  8
0
  6
CONTINUOUS
 62
     0
100
AcDbLine
 10
0.25
 20
0.25
 30
0.0
 11
0.25
 21
-0.25
 31
0.0
  0
LINE
  5
75
100
AcDbEntity
  8
0
  6
CONTINUOUS
 62
     0
100
AcDbLine
 10
0.25
 20
-0.25
 30
0.0
 11
-0.25
 21
-0.25
 31
0.0
  0
LINE
  5
76
100
AcDbEntity
  8
0
  6
CONTINUOUS
 62
     0
100
AcDbLine
 10
-0.25
 20
-0.25
 30
0.0
 11
-0.25
 21
0.25
 31
0.0
  0
ENDBLK
  5
77
100
AcDbEntity
  8
0
100
AcDbBlockEnd
  0
BLOCK
  5
78
100
AcDbEntity
  8
0
100
AcDbBlockBegin
  2
_EX_WBOX
 70
     0
 10
0.0
 20
0.0
 30
0.0
  3
_EX_WBOX
  1

  0
LINE
  5
79
100
AcDbEntity
  8
0
  6
CONTINUOUS
 62
     0
100
AcDbLine
 10
-0.5
 20
0.0
 30
0.0
 11
-1.0
 21
0.0
 31
0.0
  0
LINE
  5
7A
100
AcDbEntity
  8
0
  6
CONTINUOUS
 62
     0
100
AcDbLine
 10
-0.5
 20
0.5
 30
0.0
 11
0.5
 21
0.5
 31
0.0
  0
LINE
  5
7B
100
AcDbEntity
  8
0
  6
CONTINUOUS
 62
     0
100
AcDbLine
 10
0.5
 20
0.5
 30
0.0
 11
0.5
 21
-0.5
 31
0.0
  0
LINE
  5
7C
100
AcDbEntity
  8
0
  6
CONTINUOUS
 62
     0
100
AcDbLine
 10
0.5
 20
-0.5
 30
0.0
 11
-0.5
 21
-0.5
 31
0.0
  0
LINE
  5
7D
100
AcDbEntity
  8
0
  6
CONTINUOUS
 62
     0
100
AcDbLine
 10
-0.5
 20
-0.5
 30
0.0
 11
-0.5
 21
0.5
 31
0.0
  0
ENDBLK
  5
7E
100
AcDbEntity
  8
0
100
AcDbBlockEnd
  0
BLOCK
  5
7F
100
AcDbEntity
  8
0
100
AcDbBlockBegin
  2
_EX_INTEGRAL
 70
     0
 10
0.0
 20
0.0
 30
0.0
  3
_EX_INTEGRAL
  1

  0
LINE
  5
80
100
AcDbEntity
  8
0
  6
CONTINUOUS
 62
     0
100
AcDbLine
 10
0.0
 20
0.0
 30
0.0
 11
-1.0
 21
0.0
 31
0.0
  0
ARC
  5
81
100
AcDbEntity
  8
0
  6
CONTINUOUS
 62
     0
100
AcDbCircle
 10
0.542115
 20
0.164992
 30
0.0
 40
0.56667
100
AcDbArc
 50
73.07249
 51
196.927513
  0
ARC
  5
82
100
AcDbEntity
  8
0
  6
CONTINUOUS
 62
     0
100
AcDbCircle
 10
-0.542115
 20
-0.164992
 30
0.0
 40
0.56667
100
AcDbArc
 50
253.072487
 51
16.927513
  0
ENDBLK
  5
83
100
AcDbEntity
  8
0
100
AcDbBlockEnd
  0
ENDSEC
  0
SECTION
  2
ENTITIES
  0
LINE
  5
84
100
AcDbEntity
  8
LAY-1
  6
CONTINUOUS
 62
     7
100
AcDbLine
 10
17.9
 20
11.5
 30
0.0
 11
199.9
 21
11.5
 31
0.0
  0
LINE
  5
85
100
AcDbEntity
  8
LAY-1
  6
CONTINUOUS
 62
     7
100
AcDbLine
 10
199.9
 20
11.5
 30
0.0
 11
199.9
 21
291.5
 31
0.0
  0
LINE
  5
86
100
AcDbEntity
  8
LAY-1
  6
CONTINUOUS
 62
     7
100
AcDbLine
 10
17.9
 20
11.5
 30
0.0
 11
17.9
 21
291.5
 31
0.0
  0
LINE
  5
87
100
AcDbEntity
  8
LAY-1
  6
CONTINUOUS
 62
     7
100
AcDbLine
 10
17.9
 20
291.5
 30
0.0
 11
199.9
 21
291.5
 31
0.0
  0
LINE
  5
88
100
AcDbEntity
  8
LAY-1
  6
CONTINUOUS
 62
     7
100
AcDbLine
 10
17.9
 20
33.5
 30
0.0
 11
199.9
 21
33.5
 31
0.0
  0
LINE
  5
89
100
AcDbEntity
  8
LAY-1
  6
CONTINUOUS
 62
     6
100
AcDbLine
 10
199.9
 20
21.5
 30
0.0
 11
74.9
 21
21.5
 31
0.0
  0
LINE
  5
8A
100
AcDbEntity
  8
LAY-1
  6
CONTINUOUS
 62
     6
100
AcDbLine
 10
185.9
 20
33.5
 30
0.0
 11
185.9
 21
21.5
 31
0.0
  0
LINE
  5
8B
100
AcDbEntity
  8
LAY-1
  6
CONTINUOUS
 62
     6
100
AcDbLine
 10
180.9
 20
33.5
 30
0.0
 11
180.9
 21
21.5
 31
0.0
  0
LINE
  5
8C
100
AcDbEntity
  8
LAY-1
  6
CONTINUOUS
 62
     6
100
AcDbLine
 10
143.9
 20
33.5
 30
0.0
 11
143.9
 21
11.5
 31
0.0
  0
LINE
  5
8D
100
AcDbEntity
  8
LAY-1
  6
CONTINUOUS
 62
     6
100
AcDbLine
 10
138.9
 20
33.5
 30
0.0
 11
138.9
 21
11.5
 31
0.0
  0
LINE
  5
8E
100
AcDbEntity
  8
LAY-1
  6
CONTINUOUS
 62
     6
100
AcDbLine
 10
79.9
 20
33.5
 30
0.0
 11
79.9
 21
21.5
 31
0.0
  0
LINE
  5
8F
100
AcDbEntity
  8
LAY-1
  6
CONTINUOUS
 62
     6
100
AcDbLine
 10
74.9
 20
33.5
 30
0.0
 11
74.9
 21
11.5
 31
0.0
  0
LINE
  5
90
100
AcDbEntity
  8
LAY-1
  6
CONTINUOUS
 62
     6
100
AcDbLine
 10
61.9
 20
33.5
 30
0.0
 11
61.9
 21
11.5
 31
0.0
  0
LINE
  5
91
100
AcDbEntity
  8
LAY-1
  6
CONTINUOUS
 62
     6
100
AcDbLine
 10
48.9
 20
33.5
 30
0.0
 11
48.9
 21
11.5
 31
0.0
  0
LINE
  5
92
100
AcDbEntity
  8
LAY-1
  6
CONTINUOUS
 62
     6
100
AcDbLine
 10
33.4
 20
33.5
 30
0.0
 11
33.4
 21
11.5
 31
0.0
  0
LINE
  5
93
100
AcDbEntity
  8
LAY-1
  6
CONTINUOUS
 62
     6
100
AcDbLine
 10
17.9
 20
28.5
 30
0.0
 11
74.9
 21
28.5
 31
0.0
  0
LINE
  5
94
100
AcDbEntity
  8
LAY-1
  6
EXLTYPE2
 62
     6
100
AcDbLine
 10
17.9
 20
16.5
 30
0.0
 11
48.9
 21
16.5
 31
0.0
  0
CIRCLE
  5
95
100
AcDbEntity
  8
LAY-1
  6
CONTINUOUS
 62
     6
100
AcDbCircle
 10
22.9
 20
14.0
 30
0.0
 40
0.1
  0
CIRCLE
  5
96
100
AcDbEntity
  8
LAY-1
  6
CONTINUOUS
 62
     6
100
AcDbCircle
 10
27.9
 20
14.0
 30
0.0
 40
0.1
  0
CIRCLE
  5
97
100
AcDbEntity
  8
LAY-1
  6
CONTINUOUS
 62
     6
100
AcDbCircle
 10
38.4
 20
14.0
 30
0.0
 40
0.1
  0
CIRCLE
  5
98
100
AcDbEntity
  8
LAY-1
  6
CONTINUOUS
 62
     6
100
AcDbCircle
 10
43.4
 20
14.0
 30
0.0
 40
0.1
  0
TEXT
  5
99
100
AcDbEntity
  8
LAY-1
  6
CONTINUOUS
 62
     2
100
AcDbText
 10
20.15
 20
28.875
 30
0.0
 40
4.25
  1
製図
 41
1.087059
  7
EXCADSTD
 72
     5
 11
30.2326
 21
28.875
 31
0.0
100
AcDbText
  0
TEXT
  5
9A
100
AcDbEntity
  8
LAY-1
  6
CONTINUOUS
 62
     2
100
AcDbText
 10
35.65
 20
28.875
 30
0.0
 40
4.25
  1
写図
 41
1.087059
  7
EXCADSTD
 72
     5
 11
45.7326
 21
28.875
 31
0.0
100
AcDbText
  0
TEXT
  5
9B
100
AcDbEntity
  8
LAY-1
  6
CONTINUOUS
 62
     2
100
AcDbText
 10
50.65
 20
28.875
 30
0.0
 40
4.25
  1
検図
 41
0.938824
  7
EXCADSTD
 72
     5
 11
59.3577
 21
28.875
 31
0.0
100
AcDbText
  0
TEXT
  5
9C
100
AcDbEntity
  8
LAY-1
  6
CONTINUOUS
 62
     2
100
AcDbText
 10
63.65
 20
28.875
 30
0.0
 40
4.25
  1
承認
 41
0.938824
  7
EXCADSTD
 72
     5
 11
72.3577
 21
28.875
 31
0.0
100
AcDbText
  0
TEXT
  5
9D
100
AcDbEntity
  8
LAY-1
  6
CONTINUOUS
 62
     2
100
AcDbText
 10
75.475
 20
27.875
 30
0.0
 40
4.25
  1
品
 41
0.84
  7
EXCADSTD
 72
     5
 11
78.875
 21
27.875
 31
0.0
100
AcDbText
  0
TEXT
  5
9E
100
AcDbEntity
  8
LAY-1
  6
CONTINUOUS
 62
     2
100
AcDbText
 10
75.475
 20
22.875
 30
0.0
 40
4.25
  1
名
 41
0.84
  7
EXCADSTD
 72
     5
 11
78.875
 21
22.875
 31
0.0
100
AcDbText
  0
TEXT
  5
9F
100
AcDbEntity
  8
LAY-1
  6
CONTINUOUS
 62
     2
100
AcDbText
 10
139.475
 20
27.875
 30
0.0
 40
4.25
  1
品
 41
0.84
  7
EXCADSTD
 72
     5
 11
142.875
 21
27.875
 31
0.0
100
AcDbText
  0
TEXT
  5
A0
100
AcDbEntity
  8
LAY-1
  6
CONTINUOUS
 62
     2
100
AcDbText
 10
139.475
 20
22.875
 30
0.0
 40
4.25
  1
番
 41
0.84
  7
EXCADSTD
 72
     5
 11
142.875
 21
22.875
 31
0.0
100
AcDbText
  0
TEXT
  5
A1
100
AcDbEntity
  8
LAY-1
  6
CONTINUOUS
 62
     2
100
AcDbText
 10
181.575
 20
27.875
 30
0.0
 40
4.25
  1
尺
 41
0.84
  7
EXCADSTD
 72
     5
 11
184.975
 21
27.875
 31
0.0
100
AcDbText
  0
TEXT
  5
A2
100
AcDbEntity
  8
LAY-1
  6
CONTINUOUS
 62
     2
100
AcDbText
 10
181.575
 20
22.875
 30
0.0
 40
4.25
  1
度
 41
0.84
  7
EXCADSTD
 72
     5
 11
184.975
 21
22.875
 31
0.0
100
AcDbText
  0
TEXT
  5
A3
100
AcDbEntity
  8
LAY-1
  6
CONTINUOUS
 62
     2
100
AcDbText
 10
139.475
 20
16.575
 30
0.0
 40
4.25
  1
図
 41
0.84
  7
EXCADSTD
 72
     5
 11
142.875
 21
16.575
 31
0.0
100
AcDbText
  0
TEXT
  5
A4
100
AcDbEntity
  8
LAY-1
  6
CONTINUOUS
 62
     2
100
AcDbText
 10
139.475
 20
12.275
 30
0.0
 40
4.25
  1
番
 41
0.84
  7
EXCADSTD
 72
     5
 11
142.875
 21
12.275
 31
0.0
100
AcDbText
  0
LINE
  5
A5
100
AcDbEntity
  8
LAY-1
  6
CONTINUOUS
 62
     3
100
AcDbLine
 10
82.644775
 20
18.028799
 30
0.0
 11
81.838409
 21
18.028799
 31
0.0
  0
LINE
  5
A6
100
AcDbEntity
  8
LAY-1
  6
CONTINUOUS
 62
     3
100
AcDbLine
 10
82.644775
 20
18.835196
 30
0.0
 11
82.644775
 21
18.028799
 31
0.0
  0
LINE
  5
A7
100
AcDbEntity
  8
LAY-1
  6
CONTINUOUS
 62
     3
100
AcDbLine
 10
81.838409
 20
18.835196
 30
0.0
 11
82.644775
 21
18.835196
 31
0.0
  0
LINE
  5
A8
100
AcDbEntity
  8
LAY-1
  6
CONTINUOUS
 62
     3
100
AcDbLine
 10
81.838409
 20
18.835196
 30
0.0
 11
81.838409
 21
18.028799
 31
0.0
  0
LINE
  5
A9
100
AcDbEntity
  8
LAY-1
  6
CONTINUOUS
 62
     3
100
AcDbLine
 10
81.535919
 20
18.028799
 30
0.0
 11
80.729553
 21
18.028799
 31
0.0
  0
LINE
  5
AA
100
AcDbEntity
  8
LAY-1
  6
CONTINUOUS
 62
     3
100
AcDbLine
 10
81.535919
 20
18.835196
 30
0.0
 11
81.535919
 21
18.028799
 31
0.0
  0
LINE
  5
AB
100
AcDbEntity
  8
LAY-1
  6
CONTINUOUS
 62
     3
100
AcDbLine
 10
80.729553
 20
18.835196
 30
0.0
 11
81.535919
 21
18.835196
 31
0.0
  0
LINE
  5
AC
100
AcDbEntity
  8
LAY-1
  6
CONTINUOUS
 62
     3
100
AcDbLine
 10
80.729553
 20
18.835196
 30
0.0
 11
80.729553
 21
18.028799
 31
0.0
  0
LINE
  5
AD
100
AcDbEntity
  8
LAY-1
  6
CONTINUOUS
 62
     3
100
AcDbLine
 10
79.888733
 20
14.4
 30
0.0
 11
77.0
 21
14.4
 31
0.0
  0
ARC
  5
AE
100
AcDbEntity
  8
LAY-1
  6
CONTINUOUS
 62
     3
100
AcDbCircle
 10
79.888733
 20
16.214407
 30
0.0
 40
1.8144
100
AcDbArc
 50
270.000031
 51
334.000137
  0
LINE
  5
AF
100
AcDbEntity
  8
LAY-1
  6
CONTINUOUS
 62
     3
100
AcDbLine
 10
82.644775
 20
17.726401
 30
0.0
 11
81.519302
 21
15.419012
 31
0.0
  0
LINE
  5
B0
100
AcDbEntity
  8
LAY-1
  6
CONTINUOUS
 62
     3
100
AcDbLine
 10
81.411224
 20
17.726401
 30
0.0
 11
82.644775
 21
17.726401
 31
0.0
  0
LINE
  5
B1
100
AcDbEntity
  8
LAY-1
  6
CONTINUOUS
 62
     3
100
AcDbLine
 10
80.501297
 20
15.860907
 30
0.0
 11
81.411224
 21
17.726401
 31
0.0
  0
ARC
  5
B2
100
AcDbEntity
  8
LAY-1
  6
CONTINUOUS
 62
     3
100
AcDbCircle
 10
79.77655
 20
16.214407
 30
0.0
 40
0.8064
100
AcDbArc
 50
270.000031
 51
333.99855
  0
LINE
  5
B3
100
AcDbEntity
  8
LAY-1
  6
CONTINUOUS
 62
     3
100
AcDbLine
 10
77.0
 20
15.407996
 30
0.0
 11
79.77655
 21
15.407996
 31
0.0
  0
LINE
  5
B4
100
AcDbEntity
  8
LAY-1
  6
CONTINUOUS
 62
     3
100
AcDbLine
 10
77.0
 20
15.407996
 30
0.0
 11
77.0
 21
14.4
 31
0.0
  0
LINE
  5
B5
100
AcDbEntity
  8
LAY-1
  6
CONTINUOUS
 62
     3
100
AcDbLine
 10
79.822495
 20
16.71839
 30
0.0
 11
77.0
 21
16.71839
 31
0.0
  0
LINE
  5
B6
100
AcDbEntity
  8
LAY-1
  6
CONTINUOUS
 62
     3
100
AcDbLine
 10
79.822495
 20
17.625601
 30
0.0
 11
79.822495
 21
16.71839
 31
0.0
  0
LINE
  5
B7
100
AcDbEntity
  8
LAY-1
  6
CONTINUOUS
 62
     3
100
AcDbLine
 10
77.0
 20
17.625601
 30
0.0
 11
79.822495
 21
17.625601
 31
0.0
  0
LINE
  5
B8
100
AcDbEntity
  8
LAY-1
  6
CONTINUOUS
 62
     3
100
AcDbLine
 10
77.0
 20
17.625601
 30
0.0
 11
77.0
 21
16.71839
 31
0.0
  0
LINE
  5
B9
100
AcDbEntity
  8
LAY-1
  6
CONTINUOUS
 62
     3
100
AcDbLine
 10
79.822495
 20
17.928
 30
0.0
 11
77.0
 21
17.928
 31
0.0
  0
LINE
  5
BA
100
AcDbEntity
  8
LAY-1
  6
CONTINUOUS
 62
     3
100
AcDbLine
 10
79.822495
 20
18.835196
 30
0.0
 11
79.822495
 21
17.928
 31
0.0
  0
LINE
  5
BB
100
AcDbEntity
  8
LAY-1
  6
CONTINUOUS
 62
     3
100
AcDbLine
 10
77.0
 20
18.835196
 30
0.0
 11
79.822495
 21
18.835196
 31
0.0
  0
LINE
  5
BC
100
AcDbEntity
  8
LAY-1
  6
CONTINUOUS
 62
     3
100
AcDbLine
 10
77.0
 20
18.835196
 30
0.0
 11
77.0
 21
17.928
 31
0.0
  0
LINE
  5
BD
100
AcDbEntity
  8
LAY-1
  6
CONTINUOUS
 62
     3
100
AcDbLine
 10
82.947266
 20
17.726401
 30
0.0
 11
82.947266
 21
17.020789
 31
0.0
  0
LINE
  5
BE
100
AcDbEntity
  8
LAY-1
  6
CONTINUOUS
 62
     3
100
AcDbLine
 10
82.947266
 20
17.726401
 30
0.0
 11
83.865402
 21
17.726401
 31
0.0
  0
LINE
  5
BF
100
AcDbEntity
  8
LAY-1
  6
CONTINUOUS
 62
     3
100
AcDbLine
 10
83.753632
 20
18.431998
 30
0.0
 11
83.865402
 21
17.726401
 31
0.0
  0
LINE
  5
C0
100
AcDbEntity
  8
LAY-1
  6
CONTINUOUS
 62
     3
100
AcDbLine
 10
83.753632
 20
18.431998
 30
0.0
 11
84.876236
 21
18.431998
 31
0.0
  0
LINE
  5
C1
100
AcDbEntity
  8
LAY-1
  6
CONTINUOUS
 62
     3
100
AcDbLine
 10
84.876236
 20
18.431998
 30
0.0
 11
84.987991
 21
17.726401
 31
0.0
  0
LINE
  5
C2
100
AcDbEntity
  8
LAY-1
  6
CONTINUOUS
 62
     3
100
AcDbLine
 10
84.987991
 20
17.726401
 30
0.0
 11
87.785675
 21
17.726401
 31
0.0
  0
LINE
  5
C3
100
AcDbEntity
  8
LAY-1
  6
CONTINUOUS
 62
     3
100
AcDbLine
 10
87.785675
 20
17.726401
 30
0.0
 11
87.197311
 21
16.405051
 31
0.0
  0
ARC
  5
C4
100
AcDbEntity
  8
LAY-1
  6
CONTINUOUS
 62
     3
100
AcDbCircle
 10
85.816101
 20
17.020041
 30
0.0
 40
1.512011
100
AcDbArc
 50
263.465775
 51
335.998779
  0
LINE
  5
C5
100
AcDbEntity
  8
LAY-1
  6
CONTINUOUS
 62
     3
100
AcDbLine
 10
85.643845
 20
15.517859
 30
0.0
 11
85.533707
 21
16.214407
 31
0.0
  0
ARC
  5
C6
100
AcDbEntity
  8
LAY-1
  6
CONTINUOUS
 62
     3
100
AcDbCircle
 10
85.505814
 20
16.819205
 30
0.0
 40
0.604801
100
AcDbArc
 50
272.623749
 51
336.006531
  0
LINE
  5
C7
100
AcDbEntity
  8
LAY-1
  6
CONTINUOUS
 62
     3
100
AcDbLine
 10
86.058502
 20
16.573203
 30
0.0
 11
86.257629
 21
17.020789
 31
0.0
  0
LINE
  5
C8
100
AcDbEntity
  8
LAY-1
  6
CONTINUOUS
 62
     3
100
AcDbLine
 10
86.257629
 20
17.020789
 30
0.0
 11
85.099762
 21
17.020789
 31
0.0
  0
LINE
  5
C9
100
AcDbEntity
  8
LAY-1
  6
CONTINUOUS
 62
     3
100
AcDbLine
 10
85.099762
 20
17.020789
 30
0.0
 11
85.514847
 21
14.4
 31
0.0
  0
LINE
  5
CA
100
AcDbEntity
  8
LAY-1
  6
CONTINUOUS
 62
     3
100
AcDbLine
 10
85.514847
 20
14.4
 30
0.0
 11
84.392242
 21
14.4
 31
0.0
  0
LINE
  5
CB
100
AcDbEntity
  8
LAY-1
  6
CONTINUOUS
 62
     2
100
AcDbLine
 10
84.392242
 20
14.4
 30
0.0
 11
83.977173
 21
17.020789
 31
0.0
  0
LINE
  5
CC
100
AcDbEntity
  8
LAY-1
  6
CONTINUOUS
 62
     2
100
AcDbLine
 10
83.977173
 20
17.020789
 30
0.0
 11
82.947266
 21
17.020789
 31
0.0
  0
LINE
  5
CD
100
AcDbEntity
  8
LAY-1
  6
CONTINUOUS
 62
     3
100
AcDbLine
 10
87.684769
 20
14.4
 30
0.0
 11
87.684769
 21
15.407996
 31
0.0
  0
LINE
  5
CE
100
AcDbEntity
  8
LAY-1
  6
CONTINUOUS
 62
     3
100
AcDbLine
 10
87.684769
 20
15.407996
 30
0.0
 11
93.329544
 21
15.407996
 31
0.0
  0
LINE
  5
CF
100
AcDbEntity
  8
LAY-1
  6
CONTINUOUS
 62
     3
100
AcDbLine
 10
93.329544
 20
15.407996
 30
0.0
 11
93.329544
 21
14.4
 31
0.0
  0
LINE
  5
D0
100
AcDbEntity
  8
LAY-1
  6
CONTINUOUS
 62
     3
100
AcDbLine
 10
93.329544
 20
14.4
 30
0.0
 11
87.684769
 21
14.4
 31
0.0
  0
LINE
  5
D1
100
AcDbEntity
  8
LAY-1
  6
CONTINUOUS
 62
     3
100
AcDbLine
 10
88.087952
 20
18.835196
 30
0.0
 11
88.087952
 21
17.8272
 31
0.0
  0
LINE
  5
D2
100
AcDbEntity
  8
LAY-1
  6
CONTINUOUS
 62
     3
100
AcDbLine
 10
88.087952
 20
18.835196
 30
0.0
 11
92.926361
 21
18.835196
 31
0.0
  0
LINE
  5
D3
100
AcDbEntity
  8
LAY-1
  6
CONTINUOUS
 62
     3
100
AcDbLine
 10
92.926361
 20
18.835196
 30
0.0
 11
92.926361
 21
17.8272
 31
0.0
  0
LINE
  5
D4
100
AcDbEntity
  8
LAY-1
  6
CONTINUOUS
 62
     3
100
AcDbLine
 10
92.926361
 20
17.8272
 30
0.0
 11
88.087952
 21
17.8272
 31
0.0
  0
LINE
  5
D5
100
AcDbEntity
  8
LAY-1
  6
CONTINUOUS
 62
     3
100
AcDbLine
 10
94.035217
 20
18.835196
 30
0.0
 11
94.035217
 21
17.8272
 31
0.0
  0
LINE
  5
D6
100
AcDbEntity
  8
LAY-1
  6
CONTINUOUS
 62
     3
100
AcDbLine
 10
94.035217
 20
18.835196
 30
0.0
 11
99.27681
 21
18.835196
 31
0.0
  0
LINE
  5
D7
100
AcDbEntity
  8
LAY-1
  6
CONTINUOUS
 62
     3
100
AcDbLine
 10
99.27681
 20
18.835196
 30
0.0
 11
97.705093
 21
16.671896
 31
0.0
  0
LINE
  5
D8
100
AcDbEntity
  8
LAY-1
  6
CONTINUOUS
 62
     3
100
AcDbLine
 10
97.705093
 20
16.671896
 30
0.0
 11
99.679993
 21
14.4
 31
0.0
  0
LINE
  5
D9
100
AcDbEntity
  8
LAY-1
  6
CONTINUOUS
 62
     3
100
AcDbLine
 10
99.679993
 20
14.4
 30
0.0
 11
98.210815
 21
14.4
 31
0.0
  0
LINE
  5
DA
100
AcDbEntity
  8
LAY-1
  6
CONTINUOUS
 62
     3
100
AcDbLine
 10
98.210815
 20
14.4
 30
0.0
 11
97.036133
 21
15.751273
 31
0.0
  0
LINE
  5
DB
100
AcDbEntity
  8
LAY-1
  6
CONTINUOUS
 62
     3
100
AcDbLine
 10
97.036133
 20
15.751273
 30
0.0
 11
96.597885
 21
15.147925
 31
0.0
  0
ARC
  5
DC
100
AcDbEntity
  8
LAY-1
  6
CONTINUOUS
 62
     3
100
AcDbCircle
 10
95.129929
 20
16.214407
 30
0.0
 40
1.8144
100
AcDbArc
 50
270.000031
 51
324.00116
  0
LINE
  5
DD
100
AcDbEntity
  8
LAY-1
  6
CONTINUOUS
 62
     3
100
AcDbLine
 10
95.129929
 20
14.4
 30
0.0
 11
93.632034
 21
14.4
 31
0.0
  0
LINE
  5
DE
100
AcDbEntity
  8
LAY-1
  6
CONTINUOUS
 62
     3
100
AcDbLine
 10
93.632034
 20
14.4
 30
0.0
 11
93.632034
 21
15.407996
 31
0.0
  0
LINE
  5
DF
100
AcDbEntity
  8
LAY-1
  6
CONTINUOUS
 62
     3
100
AcDbLine
 10
93.632034
 20
15.407996
 30
0.0
 11
94.90271
 21
15.407996
 31
0.0
  0
ARC
  5
E0
100
AcDbEntity
  8
LAY-1
  6
CONTINUOUS
 62
     3
100
AcDbCircle
 10
94.90271
 20
16.415991
 30
0.0
 40
1.007999
100
AcDbArc
 50
270.000031
 51
323.996597
  0
LINE
  5
E1
100
AcDbEntity
  8
LAY-1
  6
CONTINUOUS
 62
     3
100
AcDbLine
 10
95.718094
 20
15.823508
 30
0.0
 11
97.17395
 21
17.8272
 31
0.0
  0
LINE
  5
E2
100
AcDbEntity
  8
LAY-1
  6
CONTINUOUS
 62
     3
100
AcDbLine
 10
97.17395
 20
17.8272
 30
0.0
 11
94.035217
 21
17.8272
 31
0.0
  0
LINE
  5
E3
100
AcDbEntity
  8
LAY-1
  6
CONTINUOUS
 62
     3
100
AcDbLine
 10
100.889557
 20
18.835196
 30
0.0
 11
100.889557
 21
18.129599
 31
0.0
  0
LINE
  5
E4
100
AcDbEntity
  8
LAY-1
  6
CONTINUOUS
 62
     3
100
AcDbLine
 10
100.889557
 20
18.835196
 30
0.0
 11
106.131134
 21
18.835196
 31
0.0
  0
LINE
  5
E5
100
AcDbEntity
  8
LAY-1
  6
CONTINUOUS
 62
     3
100
AcDbLine
 10
106.131134
 20
18.835196
 30
0.0
 11
106.131134
 21
18.129599
 31
0.0
  0
LINE
  5
E6
100
AcDbEntity
  8
LAY-1
  6
CONTINUOUS
 62
     3
100
AcDbLine
 10
106.131134
 20
18.129599
 30
0.0
 11
104.064774
 21
18.129599
 31
0.0
  0
LINE
  5
E7
100
AcDbEntity
  8
LAY-1
  6
CONTINUOUS
 62
     3
100
AcDbLine
 10
104.064774
 20
18.129599
 30
0.0
 11
104.064774
 21
15.206412
 31
0.0
  0
LINE
  5
E8
100
AcDbEntity
  8
LAY-1
  6
CONTINUOUS
 62
     3
100
AcDbLine
 10
104.064774
 20
15.206412
 30
0.0
 11
106.332733
 21
15.206412
 31
0.0
  0
LINE
  5
E9
100
AcDbEntity
  8
LAY-1
  6
CONTINUOUS
 62
     3
100
AcDbLine
 10
106.332733
 20
15.206412
 30
0.0
 11
106.332733
 21
14.4
 31
0.0
  0
LINE
  5
EA
100
AcDbEntity
  8
LAY-1
  6
CONTINUOUS
 62
     3
100
AcDbLine
 10
106.332733
 20
14.4
 30
0.0
 11
100.687958
 21
14.4
 31
0.0
  0
LINE
  5
EB
100
AcDbEntity
  8
LAY-1
  6
CONTINUOUS
 62
     3
100
AcDbLine
 10
100.687958
 20
14.4
 30
0.0
 11
100.687958
 21
15.206412
 31
0.0
  0
LINE
  5
EC
100
AcDbEntity
  8
LAY-1
  6
CONTINUOUS
 62
     3
100
AcDbLine
 10
100.687958
 20
15.206412
 30
0.0
 11
102.955917
 21
15.206412
 31
0.0
  0
LINE
  5
ED
100
AcDbEntity
  8
LAY-1
  6
CONTINUOUS
 62
     3
100
AcDbLine
 10
102.955917
 20
15.206412
 30
0.0
 11
102.955917
 21
18.129599
 31
0.0
  0
LINE
  5
EE
100
AcDbEntity
  8
LAY-1
  6
CONTINUOUS
 62
     3
100
AcDbLine
 10
102.955917
 20
18.129599
 30
0.0
 11
100.889557
 21
18.129599
 31
0.0
  0
LINE
  5
EF
100
AcDbEntity
  8
LAY-1
  6
CONTINUOUS
 62
     3
100
AcDbLine
 10
106.433624
 20
18.230399
 30
0.0
 11
106.433624
 21
17.766714
 31
0.0
  0
LINE
  5
F0
100
AcDbEntity
  8
LAY-1
  6
CONTINUOUS
 62
     3
100
AcDbLine
 10
106.433624
 20
18.230399
 30
0.0
 11
107.309311
 21
18.230399
 31
0.0
  0
LINE
  5
F1
100
AcDbEntity
  8
LAY-1
  6
CONTINUOUS
 62
     3
100
AcDbLine
 10
107.309311
 20
18.230399
 30
0.0
 11
106.836823
 21
18.835196
 31
0.0
  0
LINE
  5
F2
100
AcDbEntity
  8
LAY-1
  6
CONTINUOUS
 62
     3
100
AcDbLine
 10
106.836823
 20
18.835196
 30
0.0
 11
107.732193
 21
18.835196
 31
0.0
  0
LINE
  5
F3
100
AcDbEntity
  8
LAY-1
  6
CONTINUOUS
 62
     3
100
AcDbLine
 10
107.732193
 20
18.835196
 30
0.0
 11
108.204681
 21
18.230399
 31
0.0
  0
LINE
  5
F4
100
AcDbEntity
  8
LAY-1
  6
CONTINUOUS
 62
     3
100
AcDbLine
 10
108.204681
 20
18.230399
 30
0.0
 11
108.399307
 21
18.230399
 31
0.0
  0
LINE
  5
F5
100
AcDbEntity
  8
LAY-1
  6
CONTINUOUS
 62
     3
100
AcDbLine
 10
108.399307
 20
18.230399
 30
0.0
 11
108.399307
 21
18.835196
 31
0.0
  0
LINE
  5
F6
100
AcDbEntity
  8
LAY-1
  6
CONTINUOUS
 62
     3
100
AcDbLine
 10
108.399307
 20
18.835196
 30
0.0
 11
109.104767
 21
18.835196
 31
0.0
  0
LINE
  5
F7
100
AcDbEntity
  8
LAY-1
  6
CONTINUOUS
 62
     3
100
AcDbLine
 10
109.104767
 20
18.835196
 30
0.0
 11
109.104767
 21
18.230399
 31
0.0
  0
LINE
  5
F8
100
AcDbEntity
  8
LAY-1
  6
CONTINUOUS
 62
     3
100
AcDbLine
 10
109.104767
 20
18.230399
 30
0.0
 11
109.407257
 21
18.230399
 31
0.0
  0
LINE
  5
F9
100
AcDbEntity
  8
LAY-1
  6
CONTINUOUS
 62
     3
100
AcDbLine
 10
109.407257
 20
18.230399
 30
0.0
 11
109.407257
 21
18.835196
 31
0.0
  0
LINE
  5
FA
100
AcDbEntity
  8
LAY-1
  6
CONTINUOUS
 62
     3
100
AcDbLine
 10
109.407257
 20
18.835196
 30
0.0
 11
110.112732
 21
18.835196
 31
0.0
  0
LINE
  5
FB
100
AcDbEntity
  8
LAY-1
  6
CONTINUOUS
 62
     3
100
AcDbLine
 10
110.112732
 20
18.835196
 30
0.0
 11
110.112732
 21
18.230399
 31
0.0
  0
LINE
  5
FC
100
AcDbEntity
  8
LAY-1
  6
CONTINUOUS
 62
     3
100
AcDbLine
 10
110.112732
 20
18.230399
 30
0.0
 11
110.307358
 21
18.230399
 31
0.0
  0
LINE
  5
FD
100
AcDbEntity
  8
LAY-1
  6
CONTINUOUS
 62
     3
100
AcDbLine
 10
110.307358
 20
18.230399
 30
0.0
 11
110.779846
 21
18.835196
 31
0.0
  0
LINE
  5
FE
100
AcDbEntity
  8
LAY-1
  6
CONTINUOUS
 62
     3
100
AcDbLine
 10
110.779846
 20
18.835196
 30
0.0
 11
111.675217
 21
18.835196
 31
0.0
  0
LINE
  5
FF
100
AcDbEntity
  8
LAY-1
  6
CONTINUOUS
 62
     3
100
AcDbLine
 10
111.675217
 20
18.835196
 30
0.0
 11
111.202728
 21
18.230399
 31
0.0
  0
LINE
  5
100
100
AcDbEntity
  8
LAY-1
  6
CONTINUOUS
 62
     3
100
AcDbLine
 10
111.202728
 20
18.230399
 30
0.0
 11
112.0784
 21
18.230399
 31
0.0
  0
LINE
  5
101
100
AcDbEntity
  8
LAY-1
  6
CONTINUOUS
 62
     3
100
AcDbLine
 10
112.0784
 20
18.230399
 30
0.0
 11
112.0784
 21
17.766714
 31
0.0
  0
LINE
  5
102
100
AcDbEntity
  8
LAY-1
  6
CONTINUOUS
 62
     3
100
AcDbLine
 10
112.0784
 20
17.766714
 30
0.0
 11
111.016098
 21
17.766714
 31
0.0
  0
LINE
  5
103
100
AcDbEntity
  8
LAY-1
  6
CONTINUOUS
 62
     3
100
AcDbLine
 10
111.016098
 20
17.766714
 30
0.0
 11
110.832764
 21
17.262732
 31
0.0
  0
LINE
  5
104
100
AcDbEntity
  8
LAY-1
  6
CONTINUOUS
 62
     3
100
AcDbLine
 10
110.832764
 20
17.262732
 30
0.0
 11
112.0784
 21
17.262732
 31
0.0
  0
LINE
  5
105
100
AcDbEntity
  8
LAY-1
  6
CONTINUOUS
 62
     3
100
AcDbLine
 10
112.0784
 20
17.262732
 30
0.0
 11
112.0784
 21
16.799048
 31
0.0
  0
LINE
  5
106
100
AcDbEntity
  8
LAY-1
  6
CONTINUOUS
 62
     3
100
AcDbLine
 10
112.0784
 20
16.799048
 30
0.0
 11
109.759995
 21
16.799048
 31
0.0
  0
LINE
  5
107
100
AcDbEntity
  8
LAY-1
  6
CONTINUOUS
 62
     3
100
AcDbLine
 10
109.759995
 20
16.799048
 30
0.0
 11
109.759995
 21
16.567206
 31
0.0
  0
LINE
  5
108
100
AcDbEntity
  8
LAY-1
  6
CONTINUOUS
 62
     3
100
AcDbLine
 10
109.759995
 20
16.567206
 30
0.0
 11
112.0784
 21
16.567206
 31
0.0
  0
LINE
  5
109
100
AcDbEntity
  8
LAY-1
  6
CONTINUOUS
 62
     3
100
AcDbLine
 10
112.0784
 20
16.567206
 30
0.0
 11
112.0784
 21
16.103522
 31
0.0
  0
LINE
  5
10A
100
AcDbEntity
  8
LAY-1
  6
CONTINUOUS
 62
     3
100
AcDbLine
 10
112.0784
 20
16.103522
 30
0.0
 11
109.759995
 21
16.103522
 31
0.0
  0
LINE
  5
10B
100
AcDbEntity
  8
LAY-1
  6
CONTINUOUS
 62
     3
100
AcDbLine
 10
109.759995
 20
16.103522
 30
0.0
 11
109.759995
 21
15.87168
 31
0.0
  0
LINE
  5
10C
100
AcDbEntity
  8
LAY-1
  6
CONTINUOUS
 62
     3
100
AcDbLine
 10
109.759995
 20
15.87168
 30
0.0
 11
112.0784
 21
15.87168
 31
0.0
  0
LINE
  5
10D
100
AcDbEntity
  8
LAY-1
  6
CONTINUOUS
 62
     3
100
AcDbLine
 10
112.0784
 20
15.87168
 30
0.0
 11
112.0784
 21
15.407996
 31
0.0
  0
LINE
  5
10E
100
AcDbEntity
  8
LAY-1
  6
CONTINUOUS
 62
     3
100
AcDbLine
 10
112.0784
 20
15.407996
 30
0.0
 11
110.962784
 21
15.407996
 31
0.0
  0
LINE
  5
10F
100
AcDbEntity
  8
LAY-1
  6
CONTINUOUS
 62
     3
100
AcDbLine
 10
110.962784
 20
15.407996
 30
0.0
 11
112.0784
 21
14.4
 31
0.0
  0
LINE
  5
110
100
AcDbEntity
  8
LAY-1
  6
CONTINUOUS
 62
     3
100
AcDbLine
 10
112.0784
 20
14.4
 30
0.0
 11
110.875626
 21
14.4
 31
0.0
  0
LINE
  5
111
100
AcDbEntity
  8
LAY-1
  6
CONTINUOUS
 62
     3
100
AcDbLine
 10
110.875626
 20
14.4
 30
0.0
 11
109.759995
 21
15.407996
 31
0.0
  0
LINE
  5
112
100
AcDbEntity
  8
LAY-1
  6
CONTINUOUS
 62
     3
100
AcDbLine
 10
109.759995
 20
15.407996
 30
0.0
 11
109.759995
 21
14.4
 31
0.0
  0
LINE
  5
113
100
AcDbEntity
  8
LAY-1
  6
CONTINUOUS
 62
     3
100
AcDbLine
 10
109.759995
 20
14.4
 30
0.0
 11
108.752045
 21
14.4
 31
0.0
  0
LINE
  5
114
100
AcDbEntity
  8
LAY-1
  6
CONTINUOUS
 62
     3
100
AcDbLine
 10
108.752045
 20
14.4
 30
0.0
 11
108.752045
 21
15.407996
 31
0.0
  0
LINE
  5
115
100
AcDbEntity
  8
LAY-1
  6
CONTINUOUS
 62
     3
100
AcDbLine
 10
108.752045
 20
15.407996
 30
0.0
 11
107.636414
 21
14.4
 31
0.0
  0
LINE
  5
116
100
AcDbEntity
  8
LAY-1
  6
CONTINUOUS
 62
     3
100
AcDbLine
 10
107.636414
 20
14.4
 30
0.0
 11
106.433624
 21
14.4
 31
0.0
  0
LINE
  5
117
100
AcDbEntity
  8
LAY-1
  6
CONTINUOUS
 62
     3
100
AcDbLine
 10
106.433624
 20
14.4
 30
0.0
 11
107.549255
 21
15.407996
 31
0.0
  0
LINE
  5
118
100
AcDbEntity
  8
LAY-1
  6
CONTINUOUS
 62
     3
100
AcDbLine
 10
107.549255
 20
15.407996
 30
0.0
 11
106.433624
 21
15.407996
 31
0.0
  0
LINE
  5
119
100
AcDbEntity
  8
LAY-1
  6
CONTINUOUS
 62
     3
100
AcDbLine
 10
106.433624
 20
15.407996
 30
0.0
 11
106.433624
 21
15.87168
 31
0.0
  0
LINE
  5
11A
100
AcDbEntity
  8
LAY-1
  6
CONTINUOUS
 62
     3
100
AcDbLine
 10
106.433624
 20
15.87168
 30
0.0
 11
108.752045
 21
15.87168
 31
0.0
  0
LINE
  5
11B
100
AcDbEntity
  8
LAY-1
  6
CONTINUOUS
 62
     3
100
AcDbLine
 10
108.752045
 20
15.87168
 30
0.0
 11
108.752045
 21
16.103522
 31
0.0
  0
LINE
  5
11C
100
AcDbEntity
  8
LAY-1
  6
CONTINUOUS
 62
     3
100
AcDbLine
 10
108.752045
 20
16.103522
 30
0.0
 11
106.433624
 21
16.103522
 31
0.0
  0
LINE
  5
11D
100
AcDbEntity
  8
LAY-1
  6
CONTINUOUS
 62
     3
100
AcDbLine
 10
106.433624
 20
16.103522
 30
0.0
 11
106.433624
 21
16.567206
 31
0.0
  0
LINE
  5
11E
100
AcDbEntity
  8
LAY-1
  6
CONTINUOUS
 62
     3
100
AcDbLine
 10
106.433624
 20
16.567206
 30
0.0
 11
108.752045
 21
16.567206
 31
0.0
  0
LINE
  5
11F
100
AcDbEntity
  8
LAY-1
  6
CONTINUOUS
 62
     3
100
AcDbLine
 10
108.752045
 20
16.567206
 30
0.0
 11
108.752045
 21
16.799048
 31
0.0
  0
LINE
  5
120
100
AcDbEntity
  8
LAY-1
  6
CONTINUOUS
 62
     3
100
AcDbLine
 10
108.752045
 20
16.799048
 30
0.0
 11
106.433624
 21
16.799048
 31
0.0
  0
LINE
  5
121
100
AcDbEntity
  8
LAY-1
  6
CONTINUOUS
 62
     3
100
AcDbLine
 10
106.433624
 20
16.799048
 30
0.0
 11
106.433624
 21
17.262732
 31
0.0
  0
LINE
  5
122
100
AcDbEntity
  8
LAY-1
  6
CONTINUOUS
 62
     3
100
AcDbLine
 10
106.433624
 20
17.262732
 30
0.0
 11
107.679276
 21
17.262732
 31
0.0
  0
LINE
  5
123
100
AcDbEntity
  8
LAY-1
  6
CONTINUOUS
 62
     3
100
AcDbLine
 10
107.679276
 20
17.262732
 30
0.0
 11
107.495941
 21
17.766714
 31
0.0
  0
LINE
  5
124
100
AcDbEntity
  8
LAY-1
  6
CONTINUOUS
 62
     3
100
AcDbLine
 10
107.495941
 20
17.766714
 30
0.0
 11
106.433624
 21
17.766714
 31
0.0
  0
LINE
  5
125
100
AcDbEntity
  8
LAY-1
  6
CONTINUOUS
 62
     3
100
AcDbLine
 10
108.568497
 20
17.766714
 30
0.0
 11
109.943542
 21
17.766714
 31
0.0
  0
LINE
  5
126
100
AcDbEntity
  8
LAY-1
  6
CONTINUOUS
 62
     3
100
AcDbLine
 10
109.943542
 20
17.766714
 30
0.0
 11
109.759995
 21
17.262732
 31
0.0
  0
LINE
  5
127
100
AcDbEntity
  8
LAY-1
  6
CONTINUOUS
 62
     3
100
AcDbLine
 10
109.759995
 20
17.262732
 30
0.0
 11
108.752045
 21
17.262732
 31
0.0
  0
LINE
  5
128
100
AcDbEntity
  8
LAY-1
  6
CONTINUOUS
 62
     3
100
AcDbLine
 10
108.752045
 20
17.262732
 30
0.0
 11
108.568497
 21
17.766714
 31
0.0
  0
LINE
  5
129
100
AcDbEntity
  8
LAY-1
  6
CONTINUOUS
 62
     3
100
AcDbLine
 10
114.825638
 20
18.835196
 30
0.0
 11
114.498947
 21
17.524802
 31
0.0
  0
LINE
  5
12A
100
AcDbEntity
  8
LAY-1
  6
CONTINUOUS
 62
     3
100
AcDbLine
 10
114.825638
 20
18.835196
 30
0.0
 11
115.656815
 21
18.835196
 31
0.0
  0
LINE
  5
12B
100
AcDbEntity
  8
LAY-1
  6
CONTINUOUS
 62
     3
100
AcDbLine
 10
115.656815
 20
18.835196
 30
0.0
 11
115.531097
 21
18.331198
 31
0.0
  0
LINE
  5
12C
100
AcDbEntity
  8
LAY-1
  6
CONTINUOUS
 62
     3
100
AcDbLine
 10
115.531097
 20
18.331198
 30
0.0
 11
115.858414
 21
18.331198
 31
0.0
  0
LINE
  5
12D
100
AcDbEntity
  8
LAY-1
  6
CONTINUOUS
 62
     3
100
AcDbLine
 10
115.858414
 20
18.331198
 30
0.0
 11
115.858414
 21
18.835196
 31
0.0
  0
LINE
  5
12E
100
AcDbEntity
  8
LAY-1
  6
CONTINUOUS
 62
     3
100
AcDbLine
 10
115.858414
 20
18.835196
 30
0.0
 11
116.765671
 21
18.835196
 31
0.0
  0
LINE
  5
12F
100
AcDbEntity
  8
LAY-1
  6
CONTINUOUS
 62
     3
100
AcDbLine
 10
116.765671
 20
18.835196
 30
0.0
 11
116.765671
 21
18.331198
 31
0.0
  0
LINE
  5
130
100
AcDbEntity
  8
LAY-1
  6
CONTINUOUS
 62
     3
100
AcDbLine
 10
116.765671
 20
18.331198
 30
0.0
 11
117.924774
 21
18.331198
 31
0.0
  0
LINE
  5
131
100
AcDbEntity
  8
LAY-1
  6
CONTINUOUS
 62
     3
100
AcDbLine
 10
117.924774
 20
18.331198
 30
0.0
 11
117.924774
 21
17.8272
 31
0.0
  0
LINE
  5
132
100
AcDbEntity
  8
LAY-1
  6
CONTINUOUS
 62
     3
100
AcDbLine
 10
116.765671
 20
17.8272
 30
0.0
 11
117.924774
 21
17.8272
 31
0.0
  0
LINE
  5
133
100
AcDbEntity
  8
LAY-1
  6
CONTINUOUS
 62
     3
100
AcDbLine
 10
116.765671
 20
17.8272
 30
0.0
 11
116.765671
 21
17.323203
 31
0.0
  0
LINE
  5
134
100
AcDbEntity
  8
LAY-1
  6
CONTINUOUS
 62
     3
100
AcDbLine
 10
116.765671
 20
17.323203
 30
0.0
 11
118.025665
 21
17.323203
 31
0.0
  0
LINE
  5
135
100
AcDbEntity
  8
LAY-1
  6
CONTINUOUS
 62
     3
100
AcDbLine
 10
118.025665
 20
17.323203
 30
0.0
 11
118.025665
 21
16.819205
 31
0.0
  0
LINE
  5
136
100
AcDbEntity
  8
LAY-1
  6
CONTINUOUS
 62
     3
100
AcDbLine
 10
118.025665
 20
16.819205
 30
0.0
 11
117.585159
 21
16.819205
 31
0.0
  0
LINE
  5
137
100
AcDbEntity
  8
LAY-1
  6
CONTINUOUS
 62
     3
100
AcDbLine
 10
117.585159
 20
16.819205
 30
0.0
 11
118.025665
 21
14.4
 31
0.0
  0
LINE
  5
138
100
AcDbEntity
  8
LAY-1
  6
CONTINUOUS
 62
     3
100
AcDbLine
 10
118.025665
 20
14.4
 30
0.0
 11
117.205978
 21
14.4
 31
0.0
  0
LINE
  5
139
100
AcDbEntity
  8
LAY-1
  6
CONTINUOUS
 62
     3
100
AcDbLine
 10
117.205978
 20
14.4
 30
0.0
 11
116.765671
 21
16.819174
 31
0.0
  0
LINE
  5
13A
100
AcDbEntity
  8
LAY-1
  6
CONTINUOUS
 62
     3
100
AcDbLine
 10
116.765671
 20
16.819174
 30
0.0
 11
116.765671
 21
14.4
 31
0.0
  0
LINE
  5
13B
100
AcDbEntity
  8
LAY-1
  6
CONTINUOUS
 62
     3
100
AcDbLine
 10
116.765671
 20
14.4
 30
0.0
 11
115.858414
 21
14.4
 31
0.0
  0
LINE
  5
13C
100
AcDbEntity
  8
LAY-1
  6
CONTINUOUS
 62
     3
100
AcDbLine
 10
115.858414
 20
14.4
 30
0.0
 11
115.858414
 21
16.819205
 31
0.0
  0
LINE
  5
13D
100
AcDbEntity
  8
LAY-1
  6
CONTINUOUS
 62
     3
100
AcDbLine
 10
115.858414
 20
16.819205
 30
0.0
 11
115.418106
 21
14.4
 31
0.0
  0
LINE
  5
13E
100
AcDbEntity
  8
LAY-1
  6
CONTINUOUS
 62
     3
100
AcDbLine
 10
115.418106
 20
14.4
 30
0.0
 11
114.598404
 21
14.4
 31
0.0
  0
LINE
  5
13F
100
AcDbEntity
  8
LAY-1
  6
CONTINUOUS
 62
     3
100
AcDbLine
 10
114.598404
 20
14.4
 30
0.0
 11
115.038712
 21
16.819205
 31
0.0
  0
LINE
  5
140
100
AcDbEntity
  8
LAY-1
  6
CONTINUOUS
 62
     3
100
AcDbLine
 10
115.038712
 20
16.819205
 30
0.0
 11
114.598404
 21
16.819205
 31
0.0
  0
LINE
  5
141
100
AcDbEntity
  8
LAY-1
  6
CONTINUOUS
 62
     3
100
AcDbLine
 10
114.598404
 20
16.819205
 30
0.0
 11
114.598404
 21
17.323203
 31
0.0
  0
LINE
  5
142
100
AcDbEntity
  8
LAY-1
  6
CONTINUOUS
 62
     3
100
AcDbLine
 10
114.598404
 20
17.323203
 30
0.0
 11
115.858414
 21
17.323203
 31
0.0
  0
LINE
  5
143
100
AcDbEntity
  8
LAY-1
  6
CONTINUOUS
 62
     3
100
AcDbLine
 10
115.858414
 20
17.323203
 30
0.0
 11
115.858414
 21
17.8272
 31
0.0
  0
LINE
  5
144
100
AcDbEntity
  8
LAY-1
  6
CONTINUOUS
 62
     3
100
AcDbLine
 10
115.858414
 20
17.8272
 30
0.0
 11
115.405396
 21
17.8272
 31
0.0
  0
LINE
  5
145
100
AcDbEntity
  8
LAY-1
  6
CONTINUOUS
 62
     3
100
AcDbLine
 10
115.405396
 20
17.8272
 30
0.0
 11
115.330124
 21
17.524802
 31
0.0
  0
LINE
  5
146
100
AcDbEntity
  8
LAY-1
  6
CONTINUOUS
 62
     3
100
AcDbLine
 10
115.330124
 20
17.524802
 30
0.0
 11
114.498947
 21
17.524802
 31
0.0
  0
LINE
  5
147
100
AcDbEntity
  8
LAY-1
  6
CONTINUOUS
 62
     3
100
AcDbLine
 10
112.279999
 20
18.331198
 30
0.0
 11
112.279999
 21
17.8272
 31
0.0
  0
LINE
  5
148
100
AcDbEntity
  8
LAY-1
  6
CONTINUOUS
 62
     3
100
AcDbLine
 10
112.279999
 20
18.331198
 30
0.0
 11
113.287964
 21
18.331198
 31
0.0
  0
LINE
  5
149
100
AcDbEntity
  8
LAY-1
  6
CONTINUOUS
 62
     3
100
AcDbLine
 10
113.287964
 20
18.331198
 30
0.0
 11
113.287964
 21
18.835196
 31
0.0
  0
LINE
  5
14A
100
AcDbEntity
  8
LAY-1
  6
CONTINUOUS
 62
     3
100
AcDbLine
 10
113.287964
 20
18.835196
 30
0.0
 11
114.195221
 21
18.835196
 31
0.0
  0
LINE
  5
14B
100
AcDbEntity
  8
LAY-1
  6
CONTINUOUS
 62
     3
100
AcDbLine
 10
114.195221
 20
18.835196
 30
0.0
 11
114.195221
 21
18.331198
 31
0.0
  0
LINE
  5
14C
100
AcDbEntity
  8
LAY-1
  6
CONTINUOUS
 62
     3
100
AcDbLine
 10
114.195221
 20
18.331198
 30
0.0
 11
114.497513
 21
18.331198
 31
0.0
  0
LINE
  5
14D
100
AcDbEntity
  8
LAY-1
  6
CONTINUOUS
 62
     3
100
AcDbLine
 10
114.497513
 20
18.331198
 30
0.0
 11
114.497513
 21
17.8272
 31
0.0
  0
LINE
  5
14E
100
AcDbEntity
  8
LAY-1
  6
CONTINUOUS
 62
     3
100
AcDbLine
 10
114.497513
 20
17.8272
 30
0.0
 11
114.195221
 21
17.8272
 31
0.0
  0
LINE
  5
14F
100
AcDbEntity
  8
LAY-1
  6
CONTINUOUS
 62
     3
100
AcDbLine
 10
114.195221
 20
17.8272
 30
0.0
 11
114.497513
 21
17.411002
 31
0.0
  0
LINE
  5
150
100
AcDbEntity
  8
LAY-1
  6
CONTINUOUS
 62
     3
100
AcDbLine
 10
114.497513
 20
17.411002
 30
0.0
 11
114.497513
 21
16.382071
 31
0.0
  0
LINE
  5
151
100
AcDbEntity
  8
LAY-1
  6
CONTINUOUS
 62
     3
100
AcDbLine
 10
114.497513
 20
16.382071
 30
0.0
 11
114.195221
 21
16.798285
 31
0.0
  0
LINE
  5
152
100
AcDbEntity
  8
LAY-1
  6
CONTINUOUS
 62
     3
100
AcDbLine
 10
114.195221
 20
16.798285
 30
0.0
 11
114.195221
 21
14.4
 31
0.0
  0
LINE
  5
153
100
AcDbEntity
  8
LAY-1
  6
CONTINUOUS
 62
     3
100
AcDbLine
 10
114.195221
 20
14.4
 30
0.0
 11
113.287964
 21
14.4
 31
0.0
  0
LINE
  5
154
100
AcDbEntity
  8
LAY-1
  6
CONTINUOUS
 62
     3
100
AcDbLine
 10
113.287964
 20
14.4
 30
0.0
 11
113.287964
 21
17.8272
 31
0.0
  0
LINE
  5
155
100
AcDbEntity
  8
LAY-1
  6
CONTINUOUS
 62
     3
100
AcDbLine
 10
113.248383
 20
17.8272
 30
0.0
 11
112.888062
 21
14.4
 31
0.0
  0
LINE
  5
156
100
AcDbEntity
  8
LAY-1
  6
CONTINUOUS
 62
     3
100
AcDbLine
 10
112.888062
 20
14.4
 30
0.0
 11
112.279999
 21
14.4
 31
0.0
  0
LINE
  5
157
100
AcDbEntity
  8
LAY-1
  6
CONTINUOUS
 62
     3
100
AcDbLine
 10
112.279999
 20
14.4
 30
0.0
 11
112.64032
 21
17.8272
 31
0.0
  0
LINE
  5
158
100
AcDbEntity
  8
LAY-1
  6
CONTINUOUS
 62
     3
100
AcDbLine
 10
112.64032
 20
17.8272
 30
0.0
 11
112.279999
 21
17.8272
 31
0.0
  0
LINE
  5
159
100
AcDbEntity
  8
LAY-1
  6
CONTINUOUS
 62
     3
100
AcDbLine
 10
118.529556
 20
17.222403
 30
0.0
 11
118.529556
 21
16.617606
 31
0.0
  0
LINE
  5
15A
100
AcDbEntity
  8
LAY-1
  6
CONTINUOUS
 62
     3
100
AcDbLine
 10
118.529556
 20
17.222403
 30
0.0
 11
121.553635
 21
17.222403
 31
0.0
  0
LINE
  5
15B
100
AcDbEntity
  8
LAY-1
  6
CONTINUOUS
 62
     3
100
AcDbLine
 10
121.553635
 20
17.222403
 30
0.0
 11
121.553635
 21
16.617606
 31
0.0
  0
LINE
  5
15C
100
AcDbEntity
  8
LAY-1
  6
CONTINUOUS
 62
     3
100
AcDbLine
 10
121.553635
 20
16.617606
 30
0.0
 11
120.595917
 21
16.617606
 31
0.0
  0
LINE
  5
15D
100
AcDbEntity
  8
LAY-1
  6
CONTINUOUS
 62
     3
100
AcDbLine
 10
120.595917
 20
16.617606
 30
0.0
 11
120.595917
 21
15.777411
 31
0.0
  0
LINE
  5
15E
100
AcDbEntity
  8
LAY-1
  6
CONTINUOUS
 62
     3
100
AcDbLine
 10
120.595917
 20
15.777411
 30
0.0
 11
121.60408
 21
15.99166
 31
0.0
  0
LINE
  5
15F
100
AcDbEntity
  8
LAY-1
  6
CONTINUOUS
 62
     3
100
AcDbLine
 10
121.60408
 20
15.99166
 30
0.0
 11
121.60408
 21
15.0642
 31
0.0
  0
LINE
  5
160
100
AcDbEntity
  8
LAY-1
  6
CONTINUOUS
 62
     3
100
AcDbLine
 10
121.60408
 20
15.0642
 30
0.0
 11
118.479095
 21
14.4
 31
0.0
  0
LINE
  5
161
100
AcDbEntity
  8
LAY-1
  6
CONTINUOUS
 62
     3
100
AcDbLine
 10
118.479095
 20
14.4
 30
0.0
 11
118.479095
 21
15.32746
 31
0.0
  0
LINE
  5
162
100
AcDbEntity
  8
LAY-1
  6
CONTINUOUS
 62
     3
100
AcDbLine
 10
118.479095
 20
15.32746
 30
0.0
 11
119.487259
 21
15.541724
 31
0.0
  0
LINE
  5
163
100
AcDbEntity
  8
LAY-1
  6
CONTINUOUS
 62
     3
100
AcDbLine
 10
119.487259
 20
15.541724
 30
0.0
 11
119.487259
 21
16.617606
 31
0.0
  0
LINE
  5
164
100
AcDbEntity
  8
LAY-1
  6
CONTINUOUS
 62
     3
100
AcDbLine
 10
119.487259
 20
16.617606
 30
0.0
 11
118.529556
 21
16.617606
 31
0.0
  0
LINE
  5
165
100
AcDbEntity
  8
LAY-1
  6
CONTINUOUS
 62
     3
100
AcDbLine
 10
118.227264
 20
18.431998
 30
0.0
 11
118.227264
 21
17.8272
 31
0.0
  0
LINE
  5
166
100
AcDbEntity
  8
LAY-1
  6
CONTINUOUS
 62
     3
100
AcDbLine
 10
118.227264
 20
18.431998
 30
0.0
 11
121.224487
 21
18.431998
 31
0.0
  0
LINE
  5
167
100
AcDbEntity
  8
LAY-1
  6
CONTINUOUS
 62
     3
100
AcDbLine
 10
121.224487
 20
18.431998
 30
0.0
 11
121.07785
 21
18.835196
 31
0.0
  0
LINE
  5
168
100
AcDbEntity
  8
LAY-1
  6
CONTINUOUS
 62
     3
100
AcDbLine
 10
121.07785
 20
18.835196
 30
0.0
 11
122.25766
 21
18.835196
 31
0.0
  0
LINE
  5
169
100
AcDbEntity
  8
LAY-1
  6
CONTINUOUS
 62
     3
100
AcDbLine
 10
122.25766
 20
18.835196
 30
0.0
 11
122.404495
 21
18.431998
 31
0.0
  0
LINE
  5
16A
100
AcDbEntity
  8
LAY-1
  6
CONTINUOUS
 62
     3
100
AcDbLine
 10
122.404495
 20
18.431998
 30
0.0
 11
122.662491
 21
18.431998
 31
0.0
  0
LINE
  5
16B
100
AcDbEntity
  8
LAY-1
  6
CONTINUOUS
 62
     3
100
AcDbLine
 10
122.662491
 20
18.431998
 30
0.0
 11
122.662491
 21
18.835196
 31
0.0
  0
LINE
  5
16C
100
AcDbEntity
  8
LAY-1
  6
CONTINUOUS
 62
     3
100
AcDbLine
 10
122.662491
 20
18.835196
 30
0.0
 11
123.56955
 21
18.835196
 31
0.0
  0
LINE
  5
16D
100
AcDbEntity
  8
LAY-1
  6
CONTINUOUS
 62
     3
100
AcDbLine
 10
123.56955
 20
18.835196
 30
0.0
 11
123.56955
 21
18.431998
 31
0.0
  0
LINE
  5
16E
100
AcDbEntity
  8
LAY-1
  6
CONTINUOUS
 62
     3
100
AcDbLine
 10
123.56955
 20
18.431998
 30
0.0
 11
123.87204
 21
18.431998
 31
0.0
  0
LINE
  5
16F
100
AcDbEntity
  8
LAY-1
  6
CONTINUOUS
 62
     3
100
AcDbLine
 10
123.87204
 20
18.431998
 30
0.0
 11
123.87204
 21
17.8272
 31
0.0
  0
LINE
  5
170
100
AcDbEntity
  8
LAY-1
  6
CONTINUOUS
 62
     3
100
AcDbLine
 10
123.87204
 20
17.8272
 30
0.0
 11
122.624542
 21
17.8272
 31
0.0
  0
LINE
  5
171
100
AcDbEntity
  8
LAY-1
  6
CONTINUOUS
 62
     3
100
AcDbLine
 10
122.624542
 20
17.8272
 30
0.0
 11
123.87204
 21
14.4
 31
0.0
  0
LINE
  5
172
100
AcDbEntity
  8
LAY-1
  6
CONTINUOUS
 62
     3
100
AcDbLine
 10
123.87204
 20
14.4
 30
0.0
 11
122.692017
 21
14.4
 31
0.0
  0
LINE
  5
173
100
AcDbEntity
  8
LAY-1
  6
CONTINUOUS
 62
     3
100
AcDbLine
 10
122.692017
 20
14.4
 30
0.0
 11
121.444733
 21
17.8272
 31
0.0
  0
LINE
  5
174
100
AcDbEntity
  8
LAY-1
  6
CONTINUOUS
 62
     3
100
AcDbLine
 10
121.444733
 20
17.8272
 30
0.0
 11
118.227264
 21
17.8272
 31
0.0
  0
LINE
  5
175
100
AcDbEntity
  8
LAY-1
  6
CONTINUOUS
 62
     3
100
AcDbLine
 10
124.073639
 20
17.974783
 30
0.0
 11
124.073639
 21
17.336996
 31
0.0
  0
LINE
  5
176
100
AcDbEntity
  8
LAY-1
  6
CONTINUOUS
 62
     3
100
AcDbLine
 10
124.073639
 20
17.974783
 30
0.0
 11
126.946365
 21
18.935995
 31
0.0
  0
LINE
  5
177
100
AcDbEntity
  8
LAY-1
  6
CONTINUOUS
 62
     3
100
AcDbLine
 10
126.946365
 20
18.935995
 30
0.0
 11
129.819107
 21
17.974753
 31
0.0
  0
LINE
  5
178
100
AcDbEntity
  8
LAY-1
  6
CONTINUOUS
 62
     3
100
AcDbLine
 10
129.819107
 20
17.974753
 30
0.0
 11
129.819107
 21
17.336996
 31
0.0
  0
LINE
  5
179
100
AcDbEntity
  8
LAY-1
  6
CONTINUOUS
 62
     3
100
AcDbLine
 10
129.819107
 20
17.336996
 30
0.0
 11
128.962494
 21
17.623679
 31
0.0
  0
LINE
  5
17A
100
AcDbEntity
  8
LAY-1
  6
CONTINUOUS
 62
     3
100
AcDbLine
 10
128.962494
 20
17.623679
 30
0.0
 11
128.962494
 21
17.121603
 31
0.0
  0
LINE
  5
17B
100
AcDbEntity
  8
LAY-1
  6
CONTINUOUS
 62
     3
100
AcDbLine
 10
128.962494
 20
17.121603
 30
0.0
 11
124.93045
 21
17.121603
 31
0.0
  0
LINE
  5
17C
100
AcDbEntity
  8
LAY-1
  6
CONTINUOUS
 62
     3
100
AcDbLine
 10
124.93045
 20
17.121603
 30
0.0
 11
124.93045
 21
17.623679
 31
0.0
  0
LINE
  5
17D
100
AcDbEntity
  8
LAY-1
  6
CONTINUOUS
 62
     3
100
AcDbLine
 10
124.93045
 20
17.623679
 30
0.0
 11
124.073639
 21
17.336996
 31
0.0
  0
LINE
  5
17E
100
AcDbEntity
  8
LAY-1
  6
CONTINUOUS
 62
     3
100
AcDbLine
 10
125.237457
 20
17.726401
 30
0.0
 11
126.946365
 21
18.298224
 31
0.0
  0
LINE
  5
17F
100
AcDbEntity
  8
LAY-1
  6
CONTINUOUS
 62
     3
100
AcDbLine
 10
126.946365
 20
18.298224
 30
0.0
 11
128.655487
 21
17.726401
 31
0.0
  0
LINE
  5
180
100
AcDbEntity
  8
LAY-1
  6
CONTINUOUS
 62
     3
100
AcDbLine
 10
128.655487
 20
17.726401
 30
0.0
 11
125.237457
 21
17.726401
 31
0.0
  0
LINE
  5
181
100
AcDbEntity
  8
LAY-1
  6
CONTINUOUS
 62
     3
100
AcDbLine
 10
124.073639
 20
16.71839
 30
0.0
 11
124.073639
 21
16.113593
 31
0.0
  0
LINE
  5
182
100
AcDbEntity
  8
LAY-1
  6
CONTINUOUS
 62
     3
100
AcDbLine
 10
124.073639
 20
16.71839
 30
0.0
 11
129.819107
 21
16.71839
 31
0.0
  0
LINE
  5
183
100
AcDbEntity
  8
LAY-1
  6
CONTINUOUS
 62
     3
100
AcDbLine
 10
129.819107
 20
16.71839
 30
0.0
 11
129.819107
 21
16.113593
 31
0.0
  0
LINE
  5
184
100
AcDbEntity
  8
LAY-1
  6
CONTINUOUS
 62
     3
100
AcDbLine
 10
129.819107
 20
16.113593
 30
0.0
 11
129.020111
 21
16.113593
 31
0.0
  0
LINE
  5
185
100
AcDbEntity
  8
LAY-1
  6
CONTINUOUS
 62
     3
100
AcDbLine
 10
129.020111
 20
16.113593
 30
0.0
 11
129.819107
 21
14.4
 31
0.0
  0
LINE
  5
186
100
AcDbEntity
  8
LAY-1
  6
CONTINUOUS
 62
     3
100
AcDbLine
 10
129.819107
 20
14.4
 30
0.0
 11
124.073639
 21
14.4
 31
0.0
  0
LINE
  5
187
100
AcDbEntity
  8
LAY-1
  6
CONTINUOUS
 62
     3
100
AcDbLine
 10
124.073639
 20
14.4
 30
0.0
 11
124.87262
 21
16.113593
 31
0.0
  0
LINE
  5
188
100
AcDbEntity
  8
LAY-1
  6
CONTINUOUS
 62
     3
100
AcDbLine
 10
124.87262
 20
16.113593
 30
0.0
 11
124.073639
 21
16.113593
 31
0.0
  0
LINE
  5
189
100
AcDbEntity
  8
LAY-1
  6
CONTINUOUS
 62
     3
100
AcDbLine
 10
125.984756
 20
16.113593
 30
0.0
 11
127.907974
 21
16.113593
 31
0.0
  0
LINE
  5
18A
100
AcDbEntity
  8
LAY-1
  6
CONTINUOUS
 62
     3
100
AcDbLine
 10
127.907974
 20
16.113593
 30
0.0
 11
128.424973
 21
15.004797
 31
0.0
  0
LINE
  5
18B
100
AcDbEntity
  8
LAY-1
  6
CONTINUOUS
 62
     3
100
AcDbLine
 10
128.424973
 20
15.004797
 30
0.0
 11
125.467758
 21
15.004797
 31
0.0
  0
LINE
  5
18C
100
AcDbEntity
  8
LAY-1
  6
CONTINUOUS
 62
     3
100
AcDbLine
 10
125.984756
 20
16.113593
 30
0.0
 11
125.467758
 21
15.004797
 31
0.0
  0
LINE
  5
18D
100
AcDbEntity
  8
LAY-1
  6
CONTINUOUS
 62
     3
100
AcDbLine
 10
132.742493
 20
17.726401
 30
0.0
 11
132.742493
 21
17.121603
 31
0.0
  0
LINE
  5
18E
100
AcDbEntity
  8
LAY-1
  6
CONTINUOUS
 62
     3
100
AcDbLine
 10
132.742493
 20
17.726401
 30
0.0
 11
133.649551
 21
17.726401
 31
0.0
  0
LINE
  5
18F
100
AcDbEntity
  8
LAY-1
  6
CONTINUOUS
 62
     3
100
AcDbLine
 10
133.649551
 20
17.726401
 30
0.0
 11
133.649551
 21
18.835196
 31
0.0
  0
LINE
  5
190
100
AcDbEntity
  8
LAY-1
  6
CONTINUOUS
 62
     3
100
AcDbLine
 10
133.649551
 20
18.835196
 30
0.0
 11
134.657501
 21
18.835196
 31
0.0
  0
LINE
  5
191
100
AcDbEntity
  8
LAY-1
  6
CONTINUOUS
 62
     3
100
AcDbLine
 10
134.657501
 20
18.835196
 30
0.0
 11
134.657501
 21
17.726401
 31
0.0
  0
LINE
  5
192
100
AcDbEntity
  8
LAY-1
  6
CONTINUOUS
 62
     3
100
AcDbLine
 10
134.657501
 20
17.726401
 30
0.0
 11
135.564774
 21
17.726401
 31
0.0
  0
LINE
  5
193
100
AcDbEntity
  8
LAY-1
  6
CONTINUOUS
 62
     3
100
AcDbLine
 10
135.564774
 20
17.726401
 30
0.0
 11
135.564774
 21
17.121603
 31
0.0
  0
LINE
  5
194
100
AcDbEntity
  8
LAY-1
  6
CONTINUOUS
 62
     3
100
AcDbLine
 10
135.564774
 20
17.121603
 30
0.0
 11
134.657501
 21
17.121603
 31
0.0
  0
LINE
  5
195
100
AcDbEntity
  8
LAY-1
  6
CONTINUOUS
 62
     3
100
AcDbLine
 10
134.657501
 20
17.121603
 30
0.0
 11
134.657501
 21
15.004797
 31
0.0
  0
LINE
  5
196
100
AcDbEntity
  8
LAY-1
  6
CONTINUOUS
 62
     3
100
AcDbLine
 10
134.657501
 20
15.004797
 30
0.0
 11
135.665665
 21
15.004797
 31
0.0
  0
LINE
  5
197
100
AcDbEntity
  8
LAY-1
  6
CONTINUOUS
 62
     3
100
AcDbLine
 10
135.665665
 20
15.004797
 30
0.0
 11
135.665665
 21
14.4
 31
0.0
  0
LINE
  5
198
100
AcDbEntity
  8
LAY-1
  6
CONTINUOUS
 62
     3
100
AcDbLine
 10
135.665665
 20
14.4
 30
0.0
 11
132.339096
 21
14.4
 31
0.0
  0
LINE
  5
199
100
AcDbEntity
  8
LAY-1
  6
CONTINUOUS
 62
     3
100
AcDbLine
 10
132.339096
 20
14.4
 30
0.0
 11
132.339096
 21
15.004797
 31
0.0
  0
LINE
  5
19A
100
AcDbEntity
  8
LAY-1
  6
CONTINUOUS
 62
     3
100
AcDbLine
 10
132.339096
 20
15.004797
 30
0.0
 11
133.649551
 21
15.004797
 31
0.0
  0
LINE
  5
19B
100
AcDbEntity
  8
LAY-1
  6
CONTINUOUS
 62
     3
100
AcDbLine
 10
133.649551
 20
15.004797
 30
0.0
 11
133.649551
 21
17.121603
 31
0.0
  0
LINE
  5
19C
100
AcDbEntity
  8
LAY-1
  6
CONTINUOUS
 62
     3
100
AcDbLine
 10
133.649551
 20
17.121603
 30
0.0
 11
132.742493
 21
17.121603
 31
0.0
  0
LINE
  5
19D
100
AcDbEntity
  8
LAY-1
  6
CONTINUOUS
 62
     3
100
AcDbLine
 10
130.020691
 20
18.431998
 30
0.0
 11
130.020691
 21
17.8272
 31
0.0
  0
LINE
  5
19E
100
AcDbEntity
  8
LAY-1
  6
CONTINUOUS
 62
     3
100
AcDbLine
 10
130.020691
 20
18.431998
 30
0.0
 11
130.927963
 21
18.431998
 31
0.0
  0
LINE
  5
19F
100
AcDbEntity
  8
LAY-1
  6
CONTINUOUS
 62
     3
100
AcDbLine
 10
130.927963
 20
18.431998
 30
0.0
 11
130.927963
 21
18.835196
 31
0.0
  0
LINE
  5
1A0
100
AcDbEntity
  8
LAY-1
  6
CONTINUOUS
 62
     3
100
AcDbLine
 10
130.927963
 20
18.835196
 30
0.0
 11
131.935913
 21
18.835196
 31
0.0
  0
LINE
  5
1A1
100
AcDbEntity
  8
LAY-1
  6
CONTINUOUS
 62
     3
100
AcDbLine
 10
131.935913
 20
18.835196
 30
0.0
 11
131.935913
 21
18.431998
 31
0.0
  0
LINE
  5
1A2
100
AcDbEntity
  8
LAY-1
  6
CONTINUOUS
 62
     3
100
AcDbLine
 10
131.935913
 20
18.431998
 30
0.0
 11
132.843185
 21
18.431998
 31
0.0
  0
LINE
  5
1A3
100
AcDbEntity
  8
LAY-1
  6
CONTINUOUS
 62
     3
100
AcDbLine
 10
132.843185
 20
18.431998
 30
0.0
 11
131.802612
 21
16.945578
 31
0.0
  0
LINE
  5
1A4
100
AcDbEntity
  8
LAY-1
  6
CONTINUOUS
 62
     3
100
AcDbLine
 10
131.802612
 20
16.945578
 30
0.0
 11
132.742493
 21
16.287588
 31
0.0
  0
LINE
  5
1A5
100
AcDbEntity
  8
LAY-1
  6
CONTINUOUS
 62
     3
100
AcDbLine
 10
132.742493
 20
16.287588
 30
0.0
 11
132.742493
 21
15.180121
 31
0.0
  0
LINE
  5
1A6
100
AcDbEntity
  8
LAY-1
  6
CONTINUOUS
 62
     3
100
AcDbLine
 10
132.742493
 20
15.180121
 30
0.0
 11
131.935913
 21
15.744772
 31
0.0
  0
LINE
  5
1A7
100
AcDbEntity
  8
LAY-1
  6
CONTINUOUS
 62
     3
100
AcDbLine
 10
131.935913
 20
15.744772
 30
0.0
 11
131.935913
 21
14.4
 31
0.0
  0
LINE
  5
1A8
100
AcDbEntity
  8
LAY-1
  6
CONTINUOUS
 62
     3
100
AcDbLine
 10
131.935913
 20
14.4
 30
0.0
 11
130.927963
 21
14.4
 31
0.0
  0
LINE
  5
1A9
100
AcDbEntity
  8
LAY-1
  6
CONTINUOUS
 62
     3
100
AcDbLine
 10
130.927963
 20
14.4
 30
0.0
 11
130.927963
 21
15.69599
 31
0.0
  0
LINE
  5
1AA
100
AcDbEntity
  8
LAY-1
  6
CONTINUOUS
 62
     3
100
AcDbLine
 10
130.927963
 20
15.69599
 30
0.0
 11
130.020691
 21
14.4
 31
0.0
  0
LINE
  5
1AB
100
AcDbEntity
  8
LAY-1
  6
CONTINUOUS
 62
     3
100
AcDbLine
 10
130.020691
 20
14.4
 30
0.0
 11
130.020691
 21
15.98194
 31
0.0
  0
LINE
  5
1AC
100
AcDbEntity
  8
LAY-1
  6
CONTINUOUS
 62
     3
100
AcDbLine
 10
130.020691
 20
15.98194
 30
0.0
 11
131.312485
 21
17.8272
 31
0.0
  0
LINE
  5
1AD
100
AcDbEntity
  8
LAY-1
  6
CONTINUOUS
 62
     3
100
AcDbLine
 10
131.312485
 20
17.8272
 30
0.0
 11
130.020691
 21
17.8272
 31
0.0
  0
ARC
  5
1AE
100
AcDbEntity
  8
LAY-1
  6
CONTINUOUS
 62
     2
100
AcDbCircle
 10
85.816101
 20
17.020041
 30
0.0
 40
0.630012
100
AcDbArc
 50
310.768311
 51
335.998779
  0
LINE
  5
1AF
100
AcDbEntity
  8
LAY-1
  6
CONTINUOUS
 62
     2
100
AcDbLine
 10
86.540024
 20
17.096411
 30
0.0
 11
86.391968
 21
16.763907
 31
0.0
  0
LINE
  5
1B0
100
AcDbEntity
  8
LAY-1
  6
CONTINUOUS
 62
     2
100
AcDbLine
 10
84.798508
 20
17.474402
 30
0.0
 11
87.121841
 21
17.474402
 31
0.0
  0
ARC
  5
1B1
100
AcDbEntity
  8
LAY-1
  6
CONTINUOUS
 62
     2
100
AcDbCircle
 10
95.129929
 20
16.214407
 30
0.0
 40
1.562401
100
AcDbArc
 50
270.000031
 51
324.00116
  0
ARC
  5
1B2
100
AcDbEntity
  8
LAY-1
  6
CONTINUOUS
 62
     2
100
AcDbCircle
 10
95.129929
 20
16.214407
 30
0.0
 40
1.310401
100
AcDbArc
 50
270.000031
 51
324.00116
  0
ARC
  5
1B3
100
AcDbEntity
  8
LAY-1
  6
CONTINUOUS
 62
     2
100
AcDbCircle
 10
79.856567
 20
16.214407
 30
0.0
 40
1.562398
100
AcDbArc
 50
270.000031
 51
333.99855
  0
ARC
  5
1B4
100
AcDbEntity
  8
LAY-1
  6
CONTINUOUS
 62
     2
100
AcDbCircle
 10
79.77655
 20
16.214407
 30
0.0
 40
1.058399
100
AcDbArc
 50
270.000031
 51
333.99855
  0
ARC
  5
1B5
100
AcDbEntity
  8
LAY-1
  6
CONTINUOUS
 62
     2
100
AcDbCircle
 10
79.816559
 20
16.214407
 30
0.0
 40
1.310399
100
AcDbArc
 50
270.000031
 51
333.99855
  0
LINE
  5
1B6
100
AcDbEntity
  8
LAY-1
  6
CONTINUOUS
 62
     2
100
AcDbLine
 10
77.184082
 20
18.603213
 30
0.0
 11
79.638397
 21
18.603213
 31
0.0
  0
LINE
  5
1B7
100
AcDbEntity
  8
LAY-1
  6
CONTINUOUS
 62
     2
100
AcDbLine
 10
77.184082
 20
18.371214
 30
0.0
 11
79.638397
 21
18.371214
 31
0.0
  0
LINE
  5
1B8
100
AcDbEntity
  8
LAY-1
  6
CONTINUOUS
 62
     2
100
AcDbLine
 10
77.184082
 20
18.139231
 30
0.0
 11
79.638397
 21
18.139231
 31
0.0
  0
LINE
  5
1B9
100
AcDbEntity
  8
LAY-1
  6
CONTINUOUS
 62
     2
100
AcDbLine
 10
77.184082
 20
17.413603
 30
0.0
 11
79.638397
 21
17.413603
 31
0.0
  0
LINE
  5
1BA
100
AcDbEntity
  8
LAY-1
  6
CONTINUOUS
 62
     2
100
AcDbLine
 10
77.184082
 20
17.161589
 30
0.0
 11
79.638397
 21
17.161589
 31
0.0
  0
LINE
  5
1BB
100
AcDbEntity
  8
LAY-1
  6
CONTINUOUS
 62
     2
100
AcDbLine
 10
77.184082
 20
16.929606
 30
0.0
 11
79.638397
 21
16.929606
 31
0.0
  0
LINE
  5
1BC
100
AcDbEntity
  8
LAY-1
  6
CONTINUOUS
 62
     2
100
AcDbLine
 10
77.184082
 20
15.155997
 30
0.0
 11
79.77655
 21
15.155997
 31
0.0
  0
LINE
  5
1BD
100
AcDbEntity
  8
LAY-1
  6
CONTINUOUS
 62
     2
100
AcDbLine
 10
77.184082
 20
14.903998
 30
0.0
 11
79.77655
 21
14.903998
 31
0.0
  0
LINE
  5
1BE
100
AcDbEntity
  8
LAY-1
  6
CONTINUOUS
 62
     2
100
AcDbLine
 10
77.184082
 20
14.651999
 30
0.0
 11
79.77655
 21
14.651999
 31
0.0
  0
LINE
  5
1BF
100
AcDbEntity
  8
LAY-1
  6
CONTINUOUS
 62
     2
100
AcDbLine
 10
80.727707
 20
15.750403
 30
0.0
 11
81.610825
 21
17.561036
 31
0.0
  0
LINE
  5
1C0
100
AcDbEntity
  8
LAY-1
  6
CONTINUOUS
 62
     2
100
AcDbLine
 10
80.994125
 20
15.63996
 30
0.0
 11
81.931168
 21
17.561037
 31
0.0
  0
LINE
  5
1C1
100
AcDbEntity
  8
LAY-1
  6
CONTINUOUS
 62
     2
100
AcDbLine
 10
81.260529
 20
15.529425
 30
0.0
 11
82.251312
 21
17.561035
 31
0.0
  0
LINE
  5
1C2
100
AcDbEntity
  8
LAY-1
  6
CONTINUOUS
 62
     2
100
AcDbLine
 10
80.913635
 20
18.569598
 30
0.0
 11
81.351837
 21
18.569598
 31
0.0
  0
LINE
  5
1C3
100
AcDbEntity
  8
LAY-1
  6
CONTINUOUS
 62
     2
100
AcDbLine
 10
80.913635
 20
18.283999
 30
0.0
 11
81.351837
 21
18.283999
 31
0.0
  0
LINE
  5
1C4
100
AcDbEntity
  8
LAY-1
  6
CONTINUOUS
 62
     2
100
AcDbLine
 10
82.022491
 20
18.569598
 30
0.0
 11
82.460693
 21
18.569598
 31
0.0
  0
LINE
  5
1C5
100
AcDbEntity
  8
LAY-1
  6
CONTINUOUS
 62
     2
100
AcDbLine
 10
82.022491
 20
18.283999
 30
0.0
 11
82.460693
 21
18.283999
 31
0.0
  0
LINE
  5
1C6
100
AcDbEntity
  8
LAY-1
  6
CONTINUOUS
 62
     2
100
AcDbLine
 10
83.131348
 20
17.222418
 30
0.0
 11
84.328064
 21
17.222418
 31
0.0
  0
LINE
  5
1C7
100
AcDbEntity
  8
LAY-1
  6
CONTINUOUS
 62
     2
100
AcDbLine
 10
84.037537
 20
18.250268
 30
0.0
 11
84.160507
 21
17.474402
 31
0.0
  0
LINE
  5
1C8
100
AcDbEntity
  8
LAY-1
  6
CONTINUOUS
 62
     2
100
AcDbLine
 10
84.618805
 20
14.58173
 30
0.0
 11
84.244904
 21
16.941904
 31
0.0
  0
ARC
  5
1C9
100
AcDbEntity
  8
LAY-1
  6
CONTINUOUS
 62
     2
100
AcDbCircle
 10
85.796097
 20
17.020041
 30
0.0
 40
0.882012
100
AcDbArc
 50
272.671387
 51
335.998779
  0
ARC
  5
1CA
100
AcDbEntity
  8
LAY-1
  6
CONTINUOUS
 62
     2
100
AcDbCircle
 10
85.776093
 20
17.020041
 30
0.0
 40
1.134011
100
AcDbArc
 50
267.367432
 51
335.998779
  0
LINE
  5
1CB
100
AcDbEntity
  8
LAY-1
  6
CONTINUOUS
 62
     2
100
AcDbLine
 10
87.235168
 20
17.509053
 30
0.0
 11
86.812149
 21
16.558859
 31
0.0
  0
LINE
  5
1CC
100
AcDbEntity
  8
LAY-1
  6
CONTINUOUS
 62
     2
100
AcDbLine
 10
85.209061
 20
14.58173
 30
0.0
 11
84.822037
 21
17.024882
 31
0.0
  0
LINE
  5
1CD
100
AcDbEntity
  8
LAY-1
  6
CONTINUOUS
 62
     2
100
AcDbLine
 10
84.933929
 20
14.58173
 30
0.0
 11
84.352844
 21
18.250267
 31
0.0
  0
LINE
  5
1CE
100
AcDbEntity
  8
LAY-1
  6
CONTINUOUS
 62
     2
100
AcDbLine
 10
84.627975
 20
18.250267
 30
0.0
 11
84.739563
 21
17.545946
 31
0.0
  0
LINE
  5
1CF
100
AcDbEntity
  8
LAY-1
  6
CONTINUOUS
 62
     2
100
AcDbLine
 10
83.131348
 20
17.474402
 30
0.0
 11
83.96051
 21
17.474402
 31
0.0
  0
LINE
  5
1D0
100
AcDbEntity
  8
LAY-1
  6
CONTINUOUS
 62
     2
100
AcDbLine
 10
86.866989
 20
17.257039
 30
0.0
 11
86.602051
 21
16.661353
 31
0.0
  0
LINE
  5
1D1
100
AcDbEntity
  8
LAY-1
  6
CONTINUOUS
 62
     2
100
AcDbLine
 10
84.710739
 20
17.222418
 30
0.0
 11
86.63382
 21
17.222418
 31
0.0
  0
ARC
  5
1D2
100
AcDbEntity
  8
LAY-1
  6
CONTINUOUS
 62
     2
100
AcDbCircle
 10
85.756088
 20
17.020041
 30
0.0
 40
1.386011
100
AcDbArc
 50
269.611328
 51
335.998779
  0
LINE
  5
1D3
100
AcDbEntity
  8
LAY-1
  6
CONTINUOUS
 62
     2
100
AcDbLine
 10
87.490982
 20
17.509056
 30
0.0
 11
87.022247
 21
16.456335
 31
0.0
  0
LINE
  5
1D4
100
AcDbEntity
  8
LAY-1
  6
CONTINUOUS
 62
     2
100
AcDbLine
 10
98.231262
 20
18.331213
 30
0.0
 11
96.188065
 21
15.518271
 31
0.0
  0
LINE
  5
1D5
100
AcDbEntity
  8
LAY-1
  6
CONTINUOUS
 62
     2
100
AcDbLine
 10
97.686813
 20
18.07923
 30
0.0
 11
95.934204
 21
15.666403
 31
0.0
  0
ARC
  5
1D6
100
AcDbEntity
  8
LAY-1
  6
CONTINUOUS
 62
     2
100
AcDbCircle
 10
95.199936
 20
16.174406
 30
0.0
 40
0.932402
100
AcDbArc
 50
270.000031
 51
324.00116
  0
LINE
  5
1D7
100
AcDbEntity
  8
LAY-1
  6
CONTINUOUS
 62
     2
100
AcDbLine
 10
88.287949
 20
18.601559
 30
0.0
 11
92.726364
 21
18.601559
 31
0.0
  0
LINE
  5
1D8
100
AcDbEntity
  8
LAY-1
  6
CONTINUOUS
 62
     2
100
AcDbLine
 10
88.287949
 20
18.339575
 30
0.0
 11
92.726364
 21
18.339575
 31
0.0
  0
LINE
  5
1D9
100
AcDbEntity
  8
LAY-1
  6
CONTINUOUS
 62
     2
100
AcDbLine
 10
88.287949
 20
18.067591
 30
0.0
 11
92.726364
 21
18.067591
 31
0.0
  0
LINE
  5
1DA
100
AcDbEntity
  8
LAY-1
  6
CONTINUOUS
 62
     2
100
AcDbLine
 10
87.884766
 20
15.164404
 30
0.0
 11
93.129547
 21
15.164404
 31
0.0
  0
LINE
  5
1DB
100
AcDbEntity
  8
LAY-1
  6
CONTINUOUS
 62
     2
100
AcDbLine
 10
87.884766
 20
14.912405
 30
0.0
 11
93.129547
 21
14.912405
 31
0.0
  0
LINE
  5
1DC
100
AcDbEntity
  8
LAY-1
  6
CONTINUOUS
 62
     2
100
AcDbLine
 10
87.884766
 20
14.640391
 30
0.0
 11
93.129547
 21
14.640391
 31
0.0
  0
LINE
  5
1DD
100
AcDbEntity
  8
LAY-1
  6
CONTINUOUS
 62
     2
100
AcDbLine
 10
94.235214
 20
18.593213
 30
0.0
 11
98.525681
 21
18.593213
 31
0.0
  0
LINE
  5
1DE
100
AcDbEntity
  8
LAY-1
  6
CONTINUOUS
 62
     2
100
AcDbLine
 10
98.78569
 20
18.583212
 30
0.0
 11
96.451904
 21
15.370062
 31
0.0
  0
LINE
  5
1DF
100
AcDbEntity
  8
LAY-1
  6
CONTINUOUS
 62
     2
100
AcDbLine
 10
94.235214
 20
18.331213
 30
0.0
 11
98.03125
 21
18.331213
 31
0.0
  0
LINE
  5
1E0
100
AcDbEntity
  8
LAY-1
  6
CONTINUOUS
 62
     2
100
AcDbLine
 10
95.129929
 20
15.165997
 30
0.0
 11
93.832031
 21
15.165997
 31
0.0
  0
LINE
  5
1E1
100
AcDbEntity
  8
LAY-1
  6
CONTINUOUS
 62
     2
100
AcDbLine
 10
95.129929
 20
14.903998
 30
0.0
 11
93.832031
 21
14.903998
 31
0.0
  0
LINE
  5
1E2
100
AcDbEntity
  8
LAY-1
  6
CONTINUOUS
 62
     2
100
AcDbLine
 10
95.129929
 20
14.641999
 30
0.0
 11
93.832031
 21
14.641999
 31
0.0
  0
LINE
  5
1E3
100
AcDbEntity
  8
LAY-1
  6
CONTINUOUS
 62
     2
100
AcDbLine
 10
97.143188
 20
15.973715
 30
0.0
 11
98.337158
 21
14.6
 31
0.0
  0
LINE
  5
1E4
100
AcDbEntity
  8
LAY-1
  6
CONTINUOUS
 62
     2
100
AcDbLine
 10
97.295349
 20
16.153051
 30
0.0
 11
98.645172
 21
14.6
 31
0.0
  0
LINE
  5
1E5
100
AcDbEntity
  8
LAY-1
  6
CONTINUOUS
 62
     2
100
AcDbLine
 10
97.447311
 20
16.332295
 30
0.0
 11
98.952942
 21
14.6
 31
0.0
  0
LINE
  5
1E6
100
AcDbEntity
  8
LAY-1
  6
CONTINUOUS
 62
     2
100
AcDbLine
 10
97.599274
 20
16.511585
 30
0.0
 11
99.260925
 21
14.6
 31
0.0
  0
LINE
  5
1E7
100
AcDbEntity
  8
LAY-1
  6
CONTINUOUS
 62
     2
100
AcDbLine
 10
94.235214
 20
18.059229
 30
0.0
 11
97.436798
 21
18.059229
 31
0.0
  0
LINE
  5
1E8
100
AcDbEntity
  8
LAY-1
  6
CONTINUOUS
 62
     2
100
AcDbLine
 10
101.089554
 20
18.603213
 30
0.0
 11
105.931137
 21
18.603213
 31
0.0
  0
LINE
  5
1E9
100
AcDbEntity
  8
LAY-1
  6
CONTINUOUS
 62
     2
100
AcDbLine
 10
101.089554
 20
18.351214
 30
0.0
 11
105.931137
 21
18.351214
 31
0.0
  0
LINE
  5
1EA
100
AcDbEntity
  8
LAY-1
  6
CONTINUOUS
 62
     2
100
AcDbLine
 10
103.16774
 20
15.147992
 30
0.0
 11
103.16774
 21
18.121222
 31
0.0
  0
LINE
  5
1EB
100
AcDbEntity
  8
LAY-1
  6
CONTINUOUS
 62
     2
100
AcDbLine
 10
103.419586
 20
15.147992
 30
0.0
 11
103.419586
 21
18.121222
 31
0.0
  0
LINE
  5
1EC
100
AcDbEntity
  8
LAY-1
  6
CONTINUOUS
 62
     2
100
AcDbLine
 10
103.671417
 20
15.147992
 30
0.0
 11
103.671417
 21
18.121222
 31
0.0
  0
LINE
  5
1ED
100
AcDbEntity
  8
LAY-1
  6
CONTINUOUS
 62
     2
100
AcDbLine
 10
103.903244
 20
15.147992
 30
0.0
 11
103.903244
 21
18.121222
 31
0.0
  0
LINE
  5
1EE
100
AcDbEntity
  8
LAY-1
  6
CONTINUOUS
 62
     2
100
AcDbLine
 10
100.887955
 20
14.947992
 30
0.0
 11
106.132736
 21
14.947992
 31
0.0
  0
LINE
  5
1EF
100
AcDbEntity
  8
LAY-1
  6
CONTINUOUS
 62
     2
100
AcDbLine
 10
100.887955
 20
14.645993
 30
0.0
 11
106.132736
 21
14.645993
 31
0.0
  0
LINE
  5
1F0
100
AcDbEntity
  8
LAY-1
  6
CONTINUOUS
 62
     2
100
AcDbLine
 10
107.312759
 20
18.635196
 30
0.0
 11
107.687088
 21
18.15615
 31
0.0
  0
LINE
  5
1F1
100
AcDbEntity
  8
LAY-1
  6
CONTINUOUS
 62
     2
100
AcDbLine
 10
107.632477
 20
18.635196
 30
0.0
 11
108.006805
 21
18.15615
 31
0.0
  0
LINE
  5
1F2
100
AcDbEntity
  8
LAY-1
  6
CONTINUOUS
 62
     2
100
AcDbLine
 10
108.631134
 20
18.635196
 30
0.0
 11
108.631134
 21
18.198556
 31
0.0
  0
LINE
  5
1F3
100
AcDbEntity
  8
LAY-1
  6
CONTINUOUS
 62
     2
100
AcDbLine
 10
108.902985
 20
18.635196
 30
0.0
 11
108.902985
 21
18.198556
 31
0.0
  0
LINE
  5
1F4
100
AcDbEntity
  8
LAY-1
  6
CONTINUOUS
 62
     2
100
AcDbLine
 10
109.639099
 20
18.635196
 30
0.0
 11
109.639099
 21
18.198556
 31
0.0
  0
LINE
  5
1F5
100
AcDbEntity
  8
LAY-1
  6
CONTINUOUS
 62
     2
100
AcDbLine
 10
109.930939
 20
18.635196
 30
0.0
 11
109.930939
 21
18.198556
 31
0.0
  0
LINE
  5
1F6
100
AcDbEntity
  8
LAY-1
  6
CONTINUOUS
 62
     2
100
AcDbLine
 10
110.899567
 20
18.635196
 30
0.0
 11
110.525238
 21
18.15615
 31
0.0
  0
LINE
  5
1F7
100
AcDbEntity
  8
LAY-1
  6
CONTINUOUS
 62
     2
100
AcDbLine
 10
111.239288
 20
18.635196
 30
0.0
 11
110.86496
 21
18.15615
 31
0.0
  0
LINE
  5
1F8
100
AcDbEntity
  8
LAY-1
  6
CONTINUOUS
 62
     2
100
AcDbLine
 10
106.633621
 20
17.998557
 30
0.0
 11
111.878403
 21
17.998557
 31
0.0
  0
LINE
  5
1F9
100
AcDbEntity
  8
LAY-1
  6
CONTINUOUS
 62
     2
100
AcDbLine
 10
107.943176
 20
17.218829
 30
0.0
 11
107.727783
 21
17.810618
 31
0.0
  0
LINE
  5
1FA
100
AcDbEntity
  8
LAY-1
  6
CONTINUOUS
 62
     2
100
AcDbLine
 10
108.251221
 20
17.218829
 30
0.0
 11
108.035828
 21
17.810618
 31
0.0
  0
LINE
  5
1FB
100
AcDbEntity
  8
LAY-1
  6
CONTINUOUS
 62
     2
100
AcDbLine
 10
108.539261
 20
17.218851
 30
0.0
 11
108.324112
 21
17.810595
 31
0.0
  0
LINE
  5
1FC
100
AcDbEntity
  8
LAY-1
  6
CONTINUOUS
 62
     2
100
AcDbLine
 10
109.991943
 20
17.218807
 30
0.0
 11
110.207565
 21
17.81064
 31
0.0
  0
LINE
  5
1FD
100
AcDbEntity
  8
LAY-1
  6
CONTINUOUS
 62
     2
100
AcDbLine
 10
110.300201
 20
17.218807
 30
0.0
 11
110.515823
 21
17.81064
 31
0.0
  0
LINE
  5
1FE
100
AcDbEntity
  8
LAY-1
  6
CONTINUOUS
 62
     2
100
AcDbLine
 10
110.588242
 20
17.218807
 30
0.0
 11
110.803864
 21
17.81064
 31
0.0
  0
LINE
  5
1FF
100
AcDbEntity
  8
LAY-1
  6
CONTINUOUS
 62
     2
100
AcDbLine
 10
106.633621
 20
17.03089
 30
0.0
 11
111.878403
 21
17.03089
 31
0.0
  0
LINE
  5
200
100
AcDbEntity
  8
LAY-1
  6
CONTINUOUS
 62
     2
100
AcDbLine
 10
106.633621
 20
16.335364
 30
0.0
 11
108.783875
 21
16.335364
 31
0.0
  0
LINE
  5
201
100
AcDbEntity
  8
LAY-1
  6
CONTINUOUS
 62
     2
100
AcDbLine
 10
106.633621
 20
15.639838
 30
0.0
 11
108.783875
 21
15.639838
 31
0.0
  0
LINE
  5
202
100
AcDbEntity
  8
LAY-1
  6
CONTINUOUS
 62
     2
100
AcDbLine
 10
109.747559
 20
15.639838
 30
0.0
 11
111.878403
 21
15.639838
 31
0.0
  0
LINE
  5
203
100
AcDbEntity
  8
LAY-1
  6
CONTINUOUS
 62
     2
100
AcDbLine
 10
106.950882
 20
14.6
 30
0.0
 11
107.953323
 21
15.505754
 31
0.0
  0
LINE
  5
204
100
AcDbEntity
  8
LAY-1
  6
CONTINUOUS
 62
     2
100
AcDbLine
 10
107.286774
 20
14.6
 30
0.0
 11
108.289246
 21
15.505756
 31
0.0
  0
LINE
  5
205
100
AcDbEntity
  8
LAY-1
  6
CONTINUOUS
 62
     2
100
AcDbLine
 10
107.602875
 20
14.6
 30
0.0
 11
108.605347
 21
15.505756
 31
0.0
  0
LINE
  5
206
100
AcDbEntity
  8
LAY-1
  6
CONTINUOUS
 62
     2
100
AcDbLine
 10
108.983871
 20
14.6
 30
0.0
 11
108.983871
 21
16.83089
 31
0.0
  0
LINE
  5
207
100
AcDbEntity
  8
LAY-1
  6
CONTINUOUS
 62
     2
100
AcDbLine
 10
109.275711
 20
14.6
 30
0.0
 11
109.275711
 21
16.83089
 31
0.0
  0
LINE
  5
208
100
AcDbEntity
  8
LAY-1
  6
CONTINUOUS
 62
     2
100
AcDbLine
 10
109.547562
 20
14.6
 30
0.0
 11
109.547562
 21
16.83089
 31
0.0
  0
LINE
  5
209
100
AcDbEntity
  8
LAY-1
  6
CONTINUOUS
 62
     2
100
AcDbLine
 10
110.917175
 20
14.6
 30
0.0
 11
109.914734
 21
15.505754
 31
0.0
  0
LINE
  5
20A
100
AcDbEntity
  8
LAY-1
  6
CONTINUOUS
 62
     2
100
AcDbLine
 10
111.253082
 20
14.6
 30
0.0
 11
110.25061
 21
15.505756
 31
0.0
  0
LINE
  5
20B
100
AcDbEntity
  8
LAY-1
  6
CONTINUOUS
 62
     2
100
AcDbLine
 10
111.589188
 20
14.6
 30
0.0
 11
110.586716
 21
15.505756
 31
0.0
  0
LINE
  5
20C
100
AcDbEntity
  8
LAY-1
  6
CONTINUOUS
 62
     2
100
AcDbLine
 10
113.499786
 20
18.635196
 30
0.0
 11
113.499786
 21
18.279199
 31
0.0
  0
LINE
  5
20D
100
AcDbEntity
  8
LAY-1
  6
CONTINUOUS
 62
     2
100
AcDbLine
 10
113.751617
 20
18.635196
 30
0.0
 11
113.751617
 21
18.279199
 31
0.0
  0
LINE
  5
20E
100
AcDbEntity
  8
LAY-1
  6
CONTINUOUS
 62
     2
100
AcDbLine
 10
114.003464
 20
18.635196
 30
0.0
 11
114.003464
 21
18.279199
 31
0.0
  0
LINE
  5
20F
100
AcDbEntity
  8
LAY-1
  6
CONTINUOUS
 62
     2
100
AcDbLine
 10
112.479996
 20
18.079199
 30
0.0
 11
114.297516
 21
18.079199
 31
0.0
  0
LINE
  5
210
100
AcDbEntity
  8
LAY-1
  6
CONTINUOUS
 62
     2
100
AcDbLine
 10
112.494415
 20
14.598905
 30
0.0
 11
112.839203
 21
17.880294
 31
0.0
  0
LINE
  5
211
100
AcDbEntity
  8
LAY-1
  6
CONTINUOUS
 62
     2
100
AcDbLine
 10
112.727676
 20
14.598905
 30
0.0
 11
113.072479
 21
17.880294
 31
0.0
  0
LINE
  5
212
100
AcDbEntity
  8
LAY-1
  6
CONTINUOUS
 62
     2
100
AcDbLine
 10
113.499786
 20
14.6
 30
0.0
 11
113.499786
 21
17.879199
 31
0.0
  0
LINE
  5
213
100
AcDbEntity
  8
LAY-1
  6
CONTINUOUS
 62
     2
100
AcDbLine
 10
113.751617
 20
14.6
 30
0.0
 11
113.751617
 21
17.879199
 31
0.0
  0
LINE
  5
214
100
AcDbEntity
  8
LAY-1
  6
CONTINUOUS
 62
     2
100
AcDbLine
 10
114.003464
 20
14.6
 30
0.0
 11
114.003464
 21
17.879199
 31
0.0
  0
LINE
  5
215
100
AcDbEntity
  8
LAY-1
  6
CONTINUOUS
 62
     2
100
AcDbLine
 10
114.120926
 20
17.615425
 30
0.0
 11
114.380035
 21
17.258384
 31
0.0
  0
LINE
  5
216
100
AcDbEntity
  8
LAY-1
  6
CONTINUOUS
 62
     2
100
AcDbLine
 10
114.120926
 20
17.226425
 30
0.0
 11
114.380035
 21
16.869384
 31
0.0
  0
LINE
  5
217
100
AcDbEntity
  8
LAY-1
  6
CONTINUOUS
 62
     2
100
AcDbLine
 10
114.746918
 20
17.71886
 30
0.0
 11
114.976883
 21
18.641138
 31
0.0
  0
LINE
  5
218
100
AcDbEntity
  8
LAY-1
  6
CONTINUOUS
 62
     2
100
AcDbLine
 10
114.98674
 20
17.718869
 30
0.0
 11
115.216522
 21
18.641129
 31
0.0
  0
LINE
  5
219
100
AcDbEntity
  8
LAY-1
  6
CONTINUOUS
 62
     2
100
AcDbLine
 10
115.196381
 20
17.71886
 30
0.0
 11
115.426346
 21
18.641138
 31
0.0
  0
LINE
  5
21A
100
AcDbEntity
  8
LAY-1
  6
CONTINUOUS
 62
     2
100
AcDbLine
 10
116.070236
 20
18.279199
 30
0.0
 11
116.070236
 21
18.635196
 31
0.0
  0
LINE
  5
21B
100
AcDbEntity
  8
LAY-1
  6
CONTINUOUS
 62
     2
100
AcDbLine
 10
116.342072
 20
18.279199
 30
0.0
 11
116.342072
 21
18.635196
 31
0.0
  0
LINE
  5
21C
100
AcDbEntity
  8
LAY-1
  6
CONTINUOUS
 62
     2
100
AcDbLine
 10
116.593918
 20
18.279199
 30
0.0
 11
116.593918
 21
18.635196
 31
0.0
  0
LINE
  5
21D
100
AcDbEntity
  8
LAY-1
  6
CONTINUOUS
 62
     2
100
AcDbLine
 10
115.486221
 20
18.079199
 30
0.0
 11
117.724777
 21
18.079199
 31
0.0
  0
LINE
  5
21E
100
AcDbEntity
  8
LAY-1
  6
CONTINUOUS
 62
     2
100
AcDbLine
 10
116.070236
 20
17.879199
 30
0.0
 11
116.070236
 21
17.271203
 31
0.0
  0
LINE
  5
21F
100
AcDbEntity
  8
LAY-1
  6
CONTINUOUS
 62
     2
100
AcDbLine
 10
116.342072
 20
17.879199
 30
0.0
 11
116.342072
 21
17.271203
 31
0.0
  0
LINE
  5
220
100
AcDbEntity
  8
LAY-1
  6
CONTINUOUS
 62
     2
100
AcDbLine
 10
116.593918
 20
17.879199
 30
0.0
 11
116.593918
 21
17.271203
 31
0.0
  0
LINE
  5
221
100
AcDbEntity
  8
LAY-1
  6
CONTINUOUS
 62
     2
100
AcDbLine
 10
114.798401
 20
17.071204
 30
0.0
 11
117.825668
 21
17.071204
 31
0.0
  0
LINE
  5
222
100
AcDbEntity
  8
LAY-1
  6
CONTINUOUS
 62
     2
100
AcDbLine
 10
115.244797
 20
16.874439
 30
0.0
 11
114.830078
 21
14.596765
 31
0.0
  0
LINE
  5
223
100
AcDbEntity
  8
LAY-1
  6
CONTINUOUS
 62
     2
100
AcDbLine
 10
115.480728
 20
16.874439
 30
0.0
 11
115.066025
 21
14.596765
 31
0.0
  0
LINE
  5
224
100
AcDbEntity
  8
LAY-1
  6
CONTINUOUS
 62
     2
100
AcDbLine
 10
115.688919
 20
16.874442
 30
0.0
 11
115.274002
 21
14.596762
 31
0.0
  0
LINE
  5
225
100
AcDbEntity
  8
LAY-1
  6
CONTINUOUS
 62
     2
100
AcDbLine
 10
116.070236
 20
16.871204
 30
0.0
 11
116.070236
 21
14.6
 31
0.0
  0
LINE
  5
226
100
AcDbEntity
  8
LAY-1
  6
CONTINUOUS
 62
     2
100
AcDbLine
 10
116.322067
 20
16.871204
 30
0.0
 11
116.322067
 21
14.6
 31
0.0
  0
LINE
  5
227
100
AcDbEntity
  8
LAY-1
  6
CONTINUOUS
 62
     3
100
AcDbLine
 10
116.593918
 20
16.871204
 30
0.0
 11
116.593918
 21
14.6
 31
0.0
  0
LINE
  5
228
100
AcDbEntity
  8
LAY-1
  6
CONTINUOUS
 62
     2
100
AcDbLine
 10
116.934952
 20
16.874442
 30
0.0
 11
117.349869
 21
14.596762
 31
0.0
  0
LINE
  5
229
100
AcDbEntity
  8
LAY-1
  6
CONTINUOUS
 62
     2
100
AcDbLine
 10
117.151093
 20
16.874442
 30
0.0
 11
117.56601
 21
14.596762
 31
0.0
  0
LINE
  5
22A
100
AcDbEntity
  8
LAY-1
  6
CONTINUOUS
 62
     2
100
AcDbLine
 10
117.407028
 20
16.874442
 30
0.0
 11
117.821945
 21
14.596762
 31
0.0
  0
LINE
  5
22B
100
AcDbEntity
  8
LAY-1
  6
CONTINUOUS
 62
     2
100
AcDbLine
 10
118.427261
 20
18.240015
 30
0.0
 11
121.28241
 21
18.240015
 31
0.0
  0
LINE
  5
22C
100
AcDbEntity
  8
LAY-1
  6
CONTINUOUS
 62
     2
100
AcDbLine
 10
118.427261
 20
17.988017
 30
0.0
 11
121.37413
 21
17.988017
 31
0.0
  0
LINE
  5
22D
100
AcDbEntity
  8
LAY-1
  6
CONTINUOUS
 62
     2
100
AcDbLine
 10
122.811661
 20
14.587939
 30
0.0
 11
121.334198
 21
18.647257
 31
0.0
  0
LINE
  5
22E
100
AcDbEntity
  8
LAY-1
  6
CONTINUOUS
 62
     2
100
AcDbLine
 10
123.079697
 20
14.58794
 30
0.0
 11
121.602295
 21
18.647256
 31
0.0
  0
LINE
  5
22F
100
AcDbEntity
  8
LAY-1
  6
CONTINUOUS
 62
     2
100
AcDbLine
 10
123.347733
 20
14.58794
 30
0.0
 11
121.870331
 21
18.647256
 31
0.0
  0
LINE
  5
230
100
AcDbEntity
  8
LAY-1
  6
CONTINUOUS
 62
     2
100
AcDbLine
 10
123.615768
 20
14.587936
 30
0.0
 11
122.138138
 21
18.647259
 31
0.0
  0
LINE
  5
231
100
AcDbEntity
  8
LAY-1
  6
CONTINUOUS
 62
     2
100
AcDbLine
 10
122.854309
 20
18.440015
 30
0.0
 11
122.854309
 21
18.635196
 31
0.0
  0
LINE
  5
232
100
AcDbEntity
  8
LAY-1
  6
CONTINUOUS
 62
     2
100
AcDbLine
 10
123.12616
 20
18.440015
 30
0.0
 11
123.12616
 21
18.635196
 31
0.0
  0
LINE
  5
233
100
AcDbEntity
  8
LAY-1
  6
CONTINUOUS
 62
     2
100
AcDbLine
 10
123.397995
 20
18.440015
 30
0.0
 11
123.397995
 21
18.635196
 31
0.0
  0
LINE
  5
234
100
AcDbEntity
  8
LAY-1
  6
CONTINUOUS
 62
     2
100
AcDbLine
 10
122.486374
 20
18.240015
 30
0.0
 11
123.672043
 21
18.240015
 31
0.0
  0
LINE
  5
235
100
AcDbEntity
  8
LAY-1
  6
CONTINUOUS
 62
     2
100
AcDbLine
 10
122.57811
 20
17.988017
 30
0.0
 11
123.672043
 21
17.988017
 31
0.0
  0
LINE
  5
236
100
AcDbEntity
  8
LAY-1
  6
CONTINUOUS
 62
     2
100
AcDbLine
 10
118.729553
 20
17.03641
 30
0.0
 11
121.353638
 21
17.03641
 31
0.0
  0
LINE
  5
237
100
AcDbEntity
  8
LAY-1
  6
CONTINUOUS
 62
     2
100
AcDbLine
 10
118.729553
 20
16.784396
 30
0.0
 11
121.353638
 21
16.784396
 31
0.0
  0
LINE
  5
238
100
AcDbEntity
  8
LAY-1
  6
CONTINUOUS
 62
     2
100
AcDbLine
 10
119.679092
 20
16.584396
 30
0.0
 11
119.679092
 21
15.579115
 31
0.0
  0
LINE
  5
239
100
AcDbEntity
  8
LAY-1
  6
CONTINUOUS
 62
     2
100
AcDbLine
 10
119.930923
 20
16.584396
 30
0.0
 11
119.930923
 21
15.632643
 31
0.0
  0
LINE
  5
23A
100
AcDbEntity
  8
LAY-1
  6
CONTINUOUS
 62
     2
100
AcDbLine
 10
120.182755
 20
16.584396
 30
0.0
 11
120.182755
 21
15.686172
 31
0.0
  0
LINE
  5
23B
100
AcDbEntity
  8
LAY-1
  6
CONTINUOUS
 62
     2
100
AcDbLine
 10
120.434601
 20
16.584396
 30
0.0
 11
120.434601
 21
15.739703
 31
0.0
  0
LINE
  5
23C
100
AcDbEntity
  8
LAY-1
  6
CONTINUOUS
 62
     2
100
AcDbLine
 10
118.674728
 20
15.165632
 30
0.0
 11
121.408447
 21
15.7467
 31
0.0
  0
LINE
  5
23D
100
AcDbEntity
  8
LAY-1
  6
CONTINUOUS
 62
     2
100
AcDbLine
 10
118.674728
 20
14.888003
 30
0.0
 11
121.408447
 21
15.469085
 31
0.0
  0
LINE
  5
23E
100
AcDbEntity
  8
LAY-1
  6
CONTINUOUS
 62
     2
100
AcDbLine
 10
118.674728
 20
14.650373
 30
0.0
 11
121.408447
 21
15.231441
 31
0.0
  0
LINE
  5
23F
100
AcDbEntity
  8
LAY-1
  6
CONTINUOUS
 62
     2
100
AcDbLine
 10
124.263306
 20
17.832594
 30
0.0
 11
126.851532
 21
18.69854
 31
0.0
  0
LINE
  5
240
100
AcDbEntity
  8
LAY-1
  6
CONTINUOUS
 62
     2
100
AcDbLine
 10
124.263306
 20
17.566862
 30
0.0
 11
126.851532
 21
18.432824
 31
0.0
  0
LINE
  5
241
100
AcDbEntity
  8
LAY-1
  6
CONTINUOUS
 62
     2
100
AcDbLine
 10
127.041199
 20
18.698539
 30
0.0
 11
129.62944
 21
17.83253
 31
0.0
  0
LINE
  5
242
100
AcDbEntity
  8
LAY-1
  6
CONTINUOUS
 62
     2
100
AcDbLine
 10
127.041199
 20
18.452823
 30
0.0
 11
129.62944
 21
17.586814
 31
0.0
  0
LINE
  5
243
100
AcDbEntity
  8
LAY-1
  6
CONTINUOUS
 62
     2
100
AcDbLine
 10
128.762497
 20
17.559611
 30
0.0
 11
125.130447
 21
17.559611
 31
0.0
  0
LINE
  5
244
100
AcDbEntity
  8
LAY-1
  6
CONTINUOUS
 62
     2
100
AcDbLine
 10
128.762497
 20
17.287596
 30
0.0
 11
125.130447
 21
17.287596
 31
0.0
  0
LINE
  5
245
100
AcDbEntity
  8
LAY-1
  6
CONTINUOUS
 62
     2
100
AcDbLine
 10
124.273636
 20
16.506392
 30
0.0
 11
129.61911
 21
16.506392
 31
0.0
  0
LINE
  5
246
100
AcDbEntity
  8
LAY-1
  6
CONTINUOUS
 62
     2
100
AcDbLine
 10
124.273636
 20
16.274409
 30
0.0
 11
129.61911
 21
16.274409
 31
0.0
  0
LINE
  5
247
100
AcDbEntity
  8
LAY-1
  6
CONTINUOUS
 62
     2
100
AcDbLine
 10
125.101334
 20
16.093153
 30
0.0
 11
124.591125
 21
14.999246
 31
0.0
  0
LINE
  5
248
100
AcDbEntity
  8
LAY-1
  6
CONTINUOUS
 62
     2
100
AcDbLine
 10
125.419434
 20
16.093154
 30
0.0
 11
124.90921
 21
14.999246
 31
0.0
  0
LINE
  5
249
100
AcDbEntity
  8
LAY-1
  6
CONTINUOUS
 62
     2
100
AcDbLine
 10
125.737534
 20
16.093154
 30
0.0
 11
125.22731
 21
14.999246
 31
0.0
  0
LINE
  5
24A
100
AcDbEntity
  8
LAY-1
  6
CONTINUOUS
 62
     2
100
AcDbLine
 10
128.155411
 20
16.093167
 30
0.0
 11
128.665833
 21
14.999234
 31
0.0
  0
LINE
  5
24B
100
AcDbEntity
  8
LAY-1
  6
CONTINUOUS
 62
     2
100
AcDbLine
 10
128.473709
 20
16.093142
 30
0.0
 11
128.983704
 21
14.999258
 31
0.0
  0
LINE
  5
24C
100
AcDbEntity
  8
LAY-1
  6
CONTINUOUS
 62
     2
100
AcDbLine
 10
128.791992
 20
16.093131
 30
0.0
 11
129.301819
 21
14.999269
 31
0.0
  0
LINE
  5
24D
100
AcDbEntity
  8
LAY-1
  6
CONTINUOUS
 62
     2
100
AcDbLine
 10
124.468536
 20
14.817992
 30
0.0
 11
129.42421
 21
14.817992
 31
0.0
  0
LINE
  5
24E
100
AcDbEntity
  8
LAY-1
  6
CONTINUOUS
 62
     2
100
AcDbLine
 10
124.351028
 20
14.565993
 30
0.0
 11
129.541718
 21
14.565993
 31
0.0
  0
LINE
  5
24F
100
AcDbEntity
  8
LAY-1
  6
CONTINUOUS
 62
     2
100
AcDbLine
 10
131.139786
 20
18.440015
 30
0.0
 11
131.139786
 21
18.635196
 31
0.0
  0
LINE
  5
250
100
AcDbEntity
  8
LAY-1
  6
CONTINUOUS
 62
     2
100
AcDbLine
 10
131.431625
 20
18.440015
 30
0.0
 11
131.431625
 21
18.635196
 31
0.0
  0
LINE
  5
251
100
AcDbEntity
  8
LAY-1
  6
CONTINUOUS
 62
     2
100
AcDbLine
 10
131.72348
 20
18.440015
 30
0.0
 11
131.72348
 21
18.635196
 31
0.0
  0
LINE
  5
252
100
AcDbEntity
  8
LAY-1
  6
CONTINUOUS
 62
     2
100
AcDbLine
 10
130.220688
 20
18.240015
 30
0.0
 11
132.508789
 21
18.240015
 31
0.0
  0
LINE
  5
253
100
AcDbEntity
  8
LAY-1
  6
CONTINUOUS
 62
     2
100
AcDbLine
 10
130.220688
 20
17.988017
 30
0.0
 11
132.332382
 21
17.988017
 31
0.0
  0
LINE
  5
254
100
AcDbEntity
  8
LAY-1
  6
CONTINUOUS
 62
     2
100
AcDbLine
 10
131.537918
 20
17.824168
 30
0.0
 11
130.135376
 21
15.820472
 31
0.0
  0
LINE
  5
255
100
AcDbEntity
  8
LAY-1
  6
CONTINUOUS
 62
     2
100
AcDbLine
 10
131.865662
 20
17.82418
 30
0.0
 11
130.135391
 21
15.352851
 31
0.0
  0
LINE
  5
256
100
AcDbEntity
  8
LAY-1
  6
CONTINUOUS
 62
     2
100
AcDbLine
 10
132.173798
 20
17.824177
 30
0.0
 11
130.135391
 21
14.912573
 31
0.0
  0
LINE
  5
257
100
AcDbEntity
  8
LAY-1
  6
CONTINUOUS
 62
     2
100
AcDbLine
 10
131.692993
 20
16.788691
 30
0.0
 11
132.578674
 21
16.168464
 31
0.0
  0
LINE
  5
258
100
AcDbEntity
  8
LAY-1
  6
CONTINUOUS
 62
     2
100
AcDbLine
 10
131.548447
 20
16.582199
 30
0.0
 11
132.578659
 21
15.860799
 31
0.0
  0
LINE
  5
259
100
AcDbEntity
  8
LAY-1
  6
CONTINUOUS
 62
     2
100
AcDbLine
 10
131.394501
 20
16.362313
 30
0.0
 11
132.578659
 21
15.53315
 31
0.0
  0
LINE
  5
25A
100
AcDbEntity
  8
LAY-1
  6
CONTINUOUS
 62
     2
100
AcDbLine
 10
131.139786
 20
16.147223
 30
0.0
 11
131.139786
 21
14.6
 31
0.0
  0
LINE
  5
25B
100
AcDbEntity
  8
LAY-1
  6
CONTINUOUS
 62
     2
100
AcDbLine
 10
131.431625
 20
16.136316
 30
0.0
 11
131.431625
 21
14.6
 31
0.0
  0
LINE
  5
25C
100
AcDbEntity
  8
LAY-1
  6
CONTINUOUS
 62
     2
100
AcDbLine
 10
131.72348
 20
15.931957
 30
0.0
 11
131.72348
 21
14.6
 31
0.0
  0
LINE
  5
25D
100
AcDbEntity
  8
LAY-1
  6
CONTINUOUS
 62
     2
100
AcDbLine
 10
133.861374
 20
15.017991
 30
0.0
 11
133.861374
 21
18.635196
 31
0.0
  0
LINE
  5
25E
100
AcDbEntity
  8
LAY-1
  6
CONTINUOUS
 62
     2
100
AcDbLine
 10
134.153214
 20
15.017991
 30
0.0
 11
134.153214
 21
18.635196
 31
0.0
  0
LINE
  5
25F
100
AcDbEntity
  8
LAY-1
  6
CONTINUOUS
 62
     2
100
AcDbLine
 10
134.445068
 20
15.017991
 30
0.0
 11
134.445068
 21
18.635196
 31
0.0
  0
LINE
  5
260
100
AcDbEntity
  8
LAY-1
  6
CONTINUOUS
 62
     2
100
AcDbLine
 10
132.94249
 20
17.534403
 30
0.0
 11
133.661377
 21
17.534403
 31
0.0
  0
LINE
  5
261
100
AcDbEntity
  8
LAY-1
  6
CONTINUOUS
 62
     2
100
AcDbLine
 10
132.94249
 20
17.28242
 30
0.0
 11
133.661377
 21
17.28242
 31
0.0
  0
LINE
  5
262
100
AcDbEntity
  8
LAY-1
  6
CONTINUOUS
 62
     2
100
AcDbLine
 10
134.645065
 20
17.534403
 30
0.0
 11
135.364777
 21
17.534403
 31
0.0
  0
LINE
  5
263
100
AcDbEntity
  8
LAY-1
  6
CONTINUOUS
 62
     2
100
AcDbLine
 10
134.645065
 20
17.262419
 30
0.0
 11
135.364777
 21
17.262419
 31
0.0
  0
LINE
  5
264
100
AcDbEntity
  8
LAY-1
  6
CONTINUOUS
 62
     2
100
AcDbLine
 10
132.539093
 20
14.817992
 30
0.0
 11
135.465668
 21
14.817992
 31
0.0
  0
LINE
  5
265
100
AcDbEntity
  8
LAY-1
  6
CONTINUOUS
 62
     2
100
AcDbLine
 10
132.539093
 20
14.565993
 30
0.0
 11
135.465668
 21
14.565993
 31
0.0
  0
LINE
  5
266
100
AcDbEntity
  8
LAY-1
  6
CONTINUOUS
 62
     2
100
AcDbLine
 10
109.747559
 20
16.335364
 30
0.0
 11
111.878403
 21
16.335364
 31
0.0
  0
LINE
  5
267
100
AcDbEntity
  8
LAY-1
  6
EXLTYPE2
 62
     6
100
AcDbLine
 10
-0.1
 20
151.5
 30
0.0
 11
17.9
 21
151.5
 31
0.0
  0
TEXT
  5
268
100
AcDbEntity
  8
LAY-1
  6
CONTINUOUS
 62
     2
100
AcDbText
 10
80.400001
 20
24.375
 30
0.0
 40
6.25
  1
樹脂製スペア付ワンタッチ式紙巻器
 41
0.49224
  7
EXCADSTD
 72
     5
 11
138.999999
 21
24.375
 31
0.0
100
AcDbText
  0
TEXT
  5
269
100
AcDbEntity
  8
LAY-1
  6
CONTINUOUS
 62
     2
100
AcDbText
 10
186.9
 20
24.5
 30
0.0
 40
6.0
  1
ＮＳ
 41
0.84
  7
EXCADSTD
 72
     5
 11
197.8992
 21
24.5
 31
0.0
100
AcDbText
  0
TEXT
  5
26A
100
AcDbEntity
  8
LAY-1
  6
CONTINUOUS
 62
     6
100
AcDbText
 10
18.104412
 20
12.695007
 30
0.0
 40
2.5
  1
１３
 41
0.75768
  7
EXCADSTD
 72
     5
 11
22.238278
 21
12.695007
 31
0.0
100
AcDbText
  0
TEXT
  5
26B
100
AcDbEntity
  8
LAY-1
  6
CONTINUOUS
 62
     6
100
AcDbText
 10
23.104412
 20
12.695007
 30
0.0
 40
2.5
  1
１２
 41
0.75768
  7
EXCADSTD
 72
     5
 11
27.238278
 21
12.695007
 31
0.0
100
AcDbText
  0
TEXT
  5
26C
100
AcDbEntity
  8
LAY-1
  6
CONTINUOUS
 62
     6
100
AcDbText
 10
28.404412
 20
12.695007
 30
0.0
 40
2.5
  1
２２
 41
0.75768
  7
EXCADSTD
 72
     5
 11
32.538278
 21
12.695007
 31
0.0
100
AcDbText
  0
TEXT
  5
26D
100
AcDbEntity
  8
LAY-1
  6
CONTINUOUS
 62
     6
100
AcDbText
 10
20.55
 20
20.0
 30
0.0
 40
5.0
  1
宮田
 41
0.8568
  7
EXCADSTD
 72
     5
 11
29.89932
 21
20.0
 31
0.0
100
AcDbText
  0
TEXT
  5
26E
100
AcDbEntity
  8
LAY-1
  6
CONTINUOUS
 62
     7
100
AcDbText
 10
151.65
 20
13.15
 30
0.0
 40
7.0
  1
２０４２００
 41
0.81
  7
EXCADSTD
 72
     5
 11
192.15
 21
13.15
 31
0.0
100
AcDbText
  0
TEXT
  5
26F
100
AcDbEntity
  8
LAY-1
  6
CONTINUOUS
 62
     2
100
AcDbText
 10
145.8
 20
24.375
 30
0.0
 40
6.25
  1
ＮＣ７０ＶＪＷ
 41
0.66432
  7
EXCADSTD
 72
     5
 11
180.400002
 21
24.375
 31
0.0
100
AcDbText
  0
TEXT
  5
270
100
AcDbEntity
  8
LAY-1
  6
CONTINUOUS
 62
     6
100
AcDbText
 10
50.45
 20
20.0
 30
0.0
 40
5.0
  1
又場
 41
0.8568
  7
EXCADSTD
 72
     5
 11
59.79932
 21
20.0
 31
0.0
100
AcDbText
  0
TEXT
  5
271
100
AcDbEntity
  8
LAY-1
  6
CONTINUOUS
 62
     6
100
AcDbText
 10
63.45
 20
20.0
 30
0.0
 40
5.0
  1
岩田
 41
0.8568
  7
EXCADSTD
 72
     5
 11
72.79932
 21
20.0
 31
0.0
100
AcDbText
  0
LEADER
  5
272
100
AcDbEntity
  8
LAY-2
  6
CONTINUOUS
 62
     6
100
AcDbLeader
  3
STANDARD
 73
     3
 74
     1
 75
     0
 40
0.0
 76
     2
 10
163.5
 20
143.5
 30
0.0
 10
171.9
 20
156.5
 30
0.0
 77
     6
1001
ACAD
1000
DSTYLE
1002
{
1070
    41
1040
3.5
1070
     5
1000
_EX_NORM
1070
     6
1000
_EX_NORM
1070
     7
1000
_EX_NORM
1070
   341
1005
28
1002
}
  0
ARC
  5
273
100
AcDbEntity
  8
LAY-2
  6
CONTINUOUS
 62
     2
100
AcDbCircle
 10
145.609448
 20
139.7
 30
0.0
 40
8.0
100
AcDbArc
 50
3.101471
 51
176.89856
  0
ARC
  5
274
100
AcDbEntity
  8
LAY-2
  6
CONTINUOUS
 62
     7
100
AcDbCircle
 10
145.609448
 20
139.7
 30
0.0
 40
12.0
100
AcDbArc
 50
3.101471
 51
176.89856
  0
ARC
  5
275
100
AcDbEntity
  8
LAY-2
  6
CONTINUOUS
 62
     7
100
AcDbCircle
 10
847.774396
 20
125.2
 30
0.0
 40
800.0
100
AcDbArc
 50
178.420776
 51
181.579224
  0
ARC
  5
276
100
AcDbEntity
  8
LAY-2
  6
CONTINUOUS
 62
     7
100
AcDbCircle
 10
-711.725653
 20
125.2
 30
0.0
 40
800.0
100
AcDbArc
 50
358.420776
 51
1.579254
  0
LINE
  5
277
100
AcDbEntity
  8
LAY-2
  6
CONTINUOUS
 62
     2
100
AcDbLine
 10
82.474408
 20
98.7
 30
0.0
 11
82.474408
 21
151.700003
 31
0.0
  0
LINE
  5
278
100
AcDbEntity
  8
LAY-2
  6
CONTINUOUS
 62
     2
100
AcDbLine
 10
53.574408
 20
98.7
 30
0.0
 11
53.574408
 21
151.7
 31
0.0
  0
LINE
  5
279
100
AcDbEntity
  8
LAY-2
  6
CONTINUOUS
 62
     2
100
AcDbLine
 10
54.974408
 20
151.7
 30
0.0
 11
54.974408
 21
98.7
 31
0.0
  0
LINE
  5
27A
100
AcDbEntity
  8
LAY-2
  6
CONTINUOUS
 62
     2
100
AcDbLine
 10
81.074411
 20
98.7
 30
0.0
 11
81.074411
 21
151.7
 31
0.0
  0
LINE
  5
27B
100
AcDbEntity
  8
LAY-2
  6
CONTINUOUS
 62
     2
100
AcDbLine
 10
55.424408
 20
153.8
 30
0.0
 11
55.424408
 21
127.9
 31
0.0
  0
LINE
  5
27C
100
AcDbEntity
  8
LAY-2
  6
CONTINUOUS
 62
     2
100
AcDbLine
 10
80.624411
 20
153.8
 30
0.0
 11
80.624411
 21
127.9
 31
0.0
  0
LINE
  5
27D
100
AcDbEntity
  8
LAY-2
  6
CONTINUOUS
 62
     7
100
AcDbLine
 10
161.209448
 20
101.924426
 30
0.0
 11
161.209448
 21
148.475574
 31
0.0
  0
ARC
  5
27E
100
AcDbEntity
  8
LAY-2
  6
CONTINUOUS
 62
     7
100
AcDbCircle
 10
80.23085
 20
141.001704
 30
0.0
 40
50.0
100
AcDbArc
 50
230.522339
 51
237.782898
  0
ARC
  5
27F
100
AcDbEntity
  8
LAY-2
  6
CONTINUOUS
 62
     7
100
AcDbCircle
 10
49.077893
 20
103.180066
 30
0.0
 40
1.0
100
AcDbArc
 50
181.579285
 51
230.5224
  0
LINE
  5
280
100
AcDbEntity
  8
LAY-2
  6
CONTINUOUS
 62
     2
100
AcDbLine
 10
61.824411
 20
102.2
 30
0.0
 11
61.824411
 21
116.866293
 31
0.0
  0
LINE
  5
281
100
AcDbEntity
  8
LAY-2
  6
CONTINUOUS
 62
     2
100
AcDbLine
 10
74.224411
 20
116.866293
 30
0.0
 11
74.224411
 21
102.2
 31
0.0
  0
LINE
  5
282
100
AcDbEntity
  8
LAY-2
  6
CONTINUOUS
 62
     2
100
AcDbLine
 10
62.224411
 20
116.866293
 30
0.0
 11
62.224411
 21
102.2
 31
0.0
  0
LINE
  5
283
100
AcDbEntity
  8
LAY-2
  6
CONTINUOUS
 62
     2
100
AcDbLine
 10
73.824411
 20
116.866293
 30
0.0
 11
73.824411
 21
102.2
 31
0.0
  0
LINE
  5
284
100
AcDbEntity
  8
LAY-2
  6
CONTINUOUS
 62
     7
100
AcDbLine
 10
81.074411
 20
98.7
 30
0.0
 11
82.474408
 21
98.7
 31
0.0
  0
CIRCLE
  5
285
100
AcDbEntity
  8
LAY-2
  6
CONTINUOUS
 62
     6
100
AcDbCircle
 10
68.024411
 20
107.2
 30
0.0
 40
0.7
  0
CIRCLE
  5
286
100
AcDbEntity
  8
LAY-2
  6
CONTINUOUS
 62
     6
100
AcDbCircle
 10
68.024399
 20
107.2
 30
0.0
 40
0.92
  0
LINE
  5
287
100
AcDbEntity
  8
LAY-2
  6
CONTINUOUS
 62
     7
100
AcDbLine
 10
54.974408
 20
99.349951
 30
0.0
 11
81.074411
 21
99.349951
 31
0.0
  0
LINE
  5
288
100
AcDbEntity
  8
LAY-2
  6
CONTINUOUS
 62
     2
100
AcDbLine
 10
81.074411
 20
100.349951
 30
0.0
 11
54.974408
 21
100.349951
 31
0.0
  0
LINE
  5
289
100
AcDbEntity
  8
LAY-2
  6
CONTINUOUS
 62
     2
100
AcDbLine
 10
54.974408
 20
102.2
 30
0.0
 11
81.074411
 21
102.2
 31
0.0
  0
LINE
  5
28A
100
AcDbEntity
  8
LAY-2
  6
CONTINUOUS
 62
     2
100
AcDbLine
 10
54.974408
 20
101.7
 30
0.0
 11
81.074411
 21
101.7
 31
0.0
  0
LINE
  5
28B
100
AcDbEntity
  8
LAY-2
  6
CONTINUOUS
 62
     7
100
AcDbLine
 10
53.574408
 20
98.7
 30
0.0
 11
54.974408
 21
98.7
 31
0.0
  0
ARC
  5
28C
100
AcDbEntity
  8
LAY-2
  6
CONTINUOUS
 62
     6
100
AcDbCircle
 10
67.70441
 20
107.520001
 30
0.0
 40
0.2
100
AcDbArc
 50
270.0
 51
0.0
  0
ARC
  5
28D
100
AcDbEntity
  8
LAY-2
  6
CONTINUOUS
 62
     6
100
AcDbCircle
 10
68.344412
 20
107.519995
 30
0.0
 40
0.2
100
AcDbArc
 50
180.0
 51
269.99823
  0
ARC
  5
28E
100
AcDbEntity
  8
LAY-2
  6
CONTINUOUS
 62
     6
100
AcDbCircle
 10
68.344412
 20
106.879999
 30
0.0
 40
0.2
100
AcDbArc
 50
90.0
 51
180.0
  0
ARC
  5
28F
100
AcDbEntity
  8
LAY-2
  6
CONTINUOUS
 62
     6
100
AcDbCircle
 10
67.70441
 20
106.880002
 30
0.0
 40
0.2
100
AcDbArc
 50
0.0
 51
89.999146
  0
LINE
  5
290
100
AcDbEntity
  8
LAY-2
  6
CONTINUOUS
 62
     6
100
AcDbLine
 10
68.434412
 20
107.079999
 30
0.0
 11
68.344412
 21
107.079999
 31
0.0
  0
LINE
  5
291
100
AcDbEntity
  8
LAY-2
  6
CONTINUOUS
 62
     6
100
AcDbLine
 10
68.144412
 20
107.610001
 30
0.0
 11
68.144412
 21
107.519995
 31
0.0
  0
LINE
  5
292
100
AcDbEntity
  8
LAY-2
  6
CONTINUOUS
 62
     6
100
AcDbLine
 10
68.434412
 20
107.319995
 30
0.0
 11
68.344406
 21
107.319995
 31
0.0
  0
LINE
  5
293
100
AcDbEntity
  8
LAY-2
  6
CONTINUOUS
 62
     6
100
AcDbLine
 10
67.90441
 20
107.610001
 30
0.0
 11
67.90441
 21
107.520001
 31
0.0
  0
LINE
  5
294
100
AcDbEntity
  8
LAY-2
  6
CONTINUOUS
 62
     6
100
AcDbLine
 10
68.144412
 20
107.610001
 30
0.0
 11
67.90441
 21
107.610001
 31
0.0
  0
LINE
  5
295
100
AcDbEntity
  8
LAY-2
  6
CONTINUOUS
 62
     6
100
AcDbLine
 10
67.90441
 20
106.78999
 30
0.0
 11
68.144412
 21
106.78999
 31
0.0
  0
LINE
  5
296
100
AcDbEntity
  8
LAY-2
  6
CONTINUOUS
 62
     6
100
AcDbLine
 10
67.61441
 20
107.320001
 30
0.0
 11
67.70441
 21
107.320001
 31
0.0
  0
LINE
  5
297
100
AcDbEntity
  8
LAY-2
  6
CONTINUOUS
 62
     6
100
AcDbLine
 10
67.61441
 20
107.080005
 30
0.0
 11
67.704413
 21
107.080002
 31
0.0
  0
LINE
  5
298
100
AcDbEntity
  8
LAY-2
  6
CONTINUOUS
 62
     6
100
AcDbLine
 10
67.61441
 20
107.320001
 30
0.0
 11
67.61441
 21
107.080005
 31
0.0
  0
LINE
  5
299
100
AcDbEntity
  8
LAY-2
  6
CONTINUOUS
 62
     6
100
AcDbLine
 10
68.434412
 20
107.079999
 30
0.0
 11
68.434412
 21
107.319995
 31
0.0
  0
LINE
  5
29A
100
AcDbEntity
  8
LAY-2
  6
CONTINUOUS
 62
     6
100
AcDbLine
 10
67.90441
 20
106.78999
 30
0.0
 11
67.90441
 21
106.880002
 31
0.0
  0
LINE
  5
29B
100
AcDbEntity
  8
LAY-2
  6
CONTINUOUS
 62
     6
100
AcDbLine
 10
68.144412
 20
106.78999
 30
0.0
 11
68.144412
 21
106.879999
 31
0.0
  0
ARC
  5
29C
100
AcDbEntity
  8
LAY-2
  6
CONTINUOUS
 62
     7
100
AcDbCircle
 10
55.817871
 20
141.001641
 30
0.0
 40
50.0
100
AcDbArc
 50
302.217224
 51
309.477539
  0
ARC
  5
29D
100
AcDbEntity
  8
LAY-2
  6
CONTINUOUS
 62
     7
100
AcDbCircle
 10
86.970903
 20
103.17984
 30
0.0
 40
1.0
100
AcDbArc
 50
309.4776
 51
358.420715
  0
LINE
  5
29E
100
AcDbEntity
  8
LAY-2
  6
CONTINUOUS
 62
     2
100
AcDbLine
 10
80.724411
 20
123.3
 30
0.0
 11
80.724411
 21
127.3
 31
0.0
  0
LINE
  5
29F
100
AcDbEntity
  8
LAY-2
  6
CONTINUOUS
 62
     2
100
AcDbLine
 10
55.324408
 20
123.3
 30
0.0
 11
55.324408
 21
127.3
 31
0.0
  0
LINE
  5
2A0
100
AcDbEntity
  8
LAY-2
  6
CONTINUOUS
 62
     2
100
AcDbLine
 10
56.624408
 20
116.866293
 30
0.0
 11
79.424411
 21
116.866293
 31
0.0
  0
LINE
  5
2A1
100
AcDbEntity
  8
LAY-2
  6
CONTINUOUS
 62
     2
100
AcDbLine
 10
56.624408
 20
117.403638
 30
0.0
 11
79.424411
 21
117.403638
 31
0.0
  0
LINE
  5
2A2
100
AcDbEntity
  8
LAY-2
  6
CONTINUOUS
 62
     2
100
AcDbLine
 10
81.024411
 20
123.3
 30
0.0
 11
55.024408
 21
123.3
 31
0.0
  0
ARC
  5
2A3
100
AcDbEntity
  8
LAY-2
  6
CONTINUOUS
 62
     2
100
AcDbCircle
 10
56.624408
 20
118.403638
 30
0.0
 40
1.0
100
AcDbArc
 50
180.0
 51
270.0
  0
ARC
  5
2A4
100
AcDbEntity
  8
LAY-2
  6
CONTINUOUS
 62
     2
100
AcDbCircle
 10
56.624408
 20
117.866293
 30
0.0
 40
1.0
100
AcDbArc
 50
180.0
 51
270.0
  0
ARC
  5
2A5
100
AcDbEntity
  8
LAY-2
  6
CONTINUOUS
 62
     6
100
AcDbCircle
 10
60.024411
 20
114.9
 30
0.0
 40
0.4
100
AcDbArc
 50
0.0
 51
90.0
  0
LINE
  5
2A6
100
AcDbEntity
  8
LAY-2
  6
CONTINUOUS
 62
     6
100
AcDbLine
 10
60.249747
 20
113.980917
 30
0.0
 11
56.126355
 21
111.16951
 31
0.0
  0
ARC
  5
2A7
100
AcDbEntity
  8
LAY-2
  6
CONTINUOUS
 62
     6
100
AcDbCircle
 10
55.901019
 20
111.5
 30
0.0
 40
0.4
100
AcDbArc
 50
270.0
 51
304.287048
  0
LINE
  5
2A8
100
AcDbEntity
  8
LAY-2
  6
CONTINUOUS
 62
     6
100
AcDbLine
 10
55.901019
 20
111.1
 30
0.0
 11
54.974408
 21
111.1
 31
0.0
  0
LINE
  5
2A9
100
AcDbEntity
  8
LAY-2
  6
CONTINUOUS
 62
     6
100
AcDbLine
 10
54.974408
 20
115.3
 30
0.0
 11
60.024411
 21
115.3
 31
0.0
  0
ARC
  5
2AA
100
AcDbEntity
  8
LAY-2
  6
CONTINUOUS
 62
     6
100
AcDbCircle
 10
60.024411
 20
114.311407
 30
0.0
 40
0.4
100
AcDbArc
 50
304.287048
 51
0.0
  0
LINE
  5
2AB
100
AcDbEntity
  8
LAY-2
  6
CONTINUOUS
 62
     6
100
AcDbLine
 10
60.424411
 20
114.311407
 30
0.0
 11
60.424411
 21
114.9
 31
0.0
  0
LINE
  5
2AC
100
AcDbEntity
  8
LAY-2
  6
CONTINUOUS
 62
     2
100
AcDbLine
 10
55.624408
 20
123.3
 30
0.0
 11
55.624408
 21
117.866293
 31
0.0
  0
ARC
  5
2AD
100
AcDbEntity
  8
LAY-2
  6
CONTINUOUS
 62
     2
100
AcDbCircle
 10
79.424411
 20
118.403638
 30
0.0
 40
1.0
100
AcDbArc
 50
270.0
 51
0.0
  0
ARC
  5
2AE
100
AcDbEntity
  8
LAY-2
  6
CONTINUOUS
 62
     2
100
AcDbCircle
 10
79.424411
 20
117.866293
 30
0.0
 40
1.0
100
AcDbArc
 50
270.0
 51
0.0
  0
ARC
  5
2AF
100
AcDbEntity
  8
LAY-2
  6
CONTINUOUS
 62
     6
100
AcDbCircle
 10
80.147803
 20
111.5
 30
0.0
 40
0.4
100
AcDbArc
 50
235.712952
 51
270.0
  0
ARC
  5
2B0
100
AcDbEntity
  8
LAY-2
  6
CONTINUOUS
 62
     6
100
AcDbCircle
 10
76.024411
 20
114.9
 30
0.0
 40
0.4
100
AcDbArc
 50
90.0
 51
180.0
  0
ARC
  5
2B1
100
AcDbEntity
  8
LAY-2
  6
CONTINUOUS
 62
     6
100
AcDbCircle
 10
76.024411
 20
114.311407
 30
0.0
 40
0.4
100
AcDbArc
 50
180.0
 51
235.712952
  0
LINE
  5
2B2
100
AcDbEntity
  8
LAY-2
  6
CONTINUOUS
 62
     6
100
AcDbLine
 10
75.799075
 20
113.980917
 30
0.0
 11
79.922467
 21
111.16951
 31
0.0
  0
LINE
  5
2B3
100
AcDbEntity
  8
LAY-2
  6
CONTINUOUS
 62
     6
100
AcDbLine
 10
80.147803
 20
111.1
 30
0.0
 11
81.074411
 21
111.1
 31
0.0
  0
LINE
  5
2B4
100
AcDbEntity
  8
LAY-2
  6
CONTINUOUS
 62
     6
100
AcDbLine
 10
75.624411
 20
114.311407
 30
0.0
 11
75.624411
 21
114.9
 31
0.0
  0
LINE
  5
2B5
100
AcDbEntity
  8
LAY-2
  6
CONTINUOUS
 62
     6
100
AcDbLine
 10
81.074411
 20
115.3
 30
0.0
 11
76.024411
 21
115.3
 31
0.0
  0
LINE
  5
2B6
100
AcDbEntity
  8
LAY-2
  6
CONTINUOUS
 62
     2
100
AcDbLine
 10
80.424411
 20
123.3
 30
0.0
 11
80.424411
 21
117.866293
 31
0.0
  0
LINE
  5
2B7
100
AcDbEntity
  8
LAY-2
  6
CONTINUOUS
 62
     2
100
AcDbLine
 10
55.024408
 20
127.3
 30
0.0
 11
81.024411
 21
127.3
 31
0.0
  0
LINE
  5
2B8
100
AcDbEntity
  8
LAY-2
  6
CONTINUOUS
 62
     2
100
AcDbLine
 10
55.224408
 20
127.9
 30
0.0
 11
80.824411
 21
127.9
 31
0.0
  0
LINE
  5
2B9
100
AcDbEntity
  8
LAY-2
  6
CONTINUOUS
 62
     6
100
AcDbLine
 10
55.424408
 20
133.3
 30
0.0
 11
55.024408
 21
133.3
 31
0.0
  0
LINE
  5
2BA
100
AcDbEntity
  8
LAY-2
  6
CONTINUOUS
 62
     6
100
AcDbLine
 10
55.024408
 20
130.3
 30
0.0
 11
55.424408
 21
130.3
 31
0.0
  0
LINE
  5
2BB
100
AcDbEntity
  8
LAY-2
  6
CONTINUOUS
 62
     2
100
AcDbLine
 10
56.024408
 20
127.9
 30
0.0
 11
56.024408
 21
127.3
 31
0.0
  0
LINE
  5
2BC
100
AcDbEntity
  8
LAY-2
  6
CONTINUOUS
 62
     6
100
AcDbLine
 10
54.974408
 20
128.4
 30
0.0
 11
55.224408
 21
128.4
 31
0.0
  0
LINE
  5
2BD
100
AcDbEntity
  8
LAY-2
  6
CONTINUOUS
 62
     6
100
AcDbLine
 10
54.974408
 20
129.4
 30
0.0
 11
55.224408
 21
129.4
 31
0.0
  0
LINE
  5
2BE
100
AcDbEntity
  8
LAY-2
  6
CONTINUOUS
 62
     6
100
AcDbLine
 10
55.424408
 20
129.9
 30
0.0
 11
55.224408
 21
129.9
 31
0.0
  0
LINE
  5
2BF
100
AcDbEntity
  8
LAY-2
  6
CONTINUOUS
 62
     6
100
AcDbLine
 10
55.224408
 20
129.9
 30
0.0
 11
55.224408
 21
127.9
 31
0.0
  0
LINE
  5
2C0
100
AcDbEntity
  8
LAY-2
  6
CONTINUOUS
 62
     6
100
AcDbLine
 10
55.224408
 20
137.840273
 30
0.0
 11
55.224408
 21
137.1
 31
0.0
  0
LINE
  5
2C1
100
AcDbEntity
  8
LAY-2
  6
CONTINUOUS
 62
     6
100
AcDbLine
 10
55.224408
 20
137.1
 30
0.0
 11
55.424408
 21
137.1
 31
0.0
  0
LINE
  5
2C2
100
AcDbEntity
  8
LAY-2
  6
CONTINUOUS
 62
     6
100
AcDbLine
 10
55.224408
 20
142.3
 30
0.0
 11
55.424408
 21
142.3
 31
0.0
  0
LINE
  5
2C3
100
AcDbEntity
  8
LAY-2
  6
CONTINUOUS
 62
     6
100
AcDbLine
 10
55.224408
 20
137.72
 30
0.0
 11
54.974408
 21
137.72
 31
0.0
  0
LINE
  5
2C4
100
AcDbEntity
  8
LAY-2
  6
CONTINUOUS
 62
     6
100
AcDbLine
 10
55.224408
 20
141.68
 30
0.0
 11
54.974408
 21
141.68
 31
0.0
  0
LINE
  5
2C5
100
AcDbEntity
  8
LAY-2
  6
CONTINUOUS
 62
     6
100
AcDbLine
 10
54.974408
 20
134.3
 30
0.0
 11
55.424408
 21
134.3
 31
0.0
  0
LINE
  5
2C6
100
AcDbEntity
  8
LAY-2
  6
CONTINUOUS
 62
     6
100
AcDbLine
 10
54.974408
 20
135.5
 30
0.0
 11
55.424408
 21
135.5
 31
0.0
  0
LINE
  5
2C7
100
AcDbEntity
  8
LAY-2
  6
CONTINUOUS
 62
     6
100
AcDbLine
 10
54.974408
 20
136.3
 30
0.0
 11
55.424408
 21
136.3
 31
0.0
  0
LINE
  5
2C8
100
AcDbEntity
  8
LAY-2
  6
CONTINUOUS
 62
     6
100
AcDbLine
 10
54.974408
 20
137.5
 30
0.0
 11
55.224408
 21
137.5
 31
0.0
  0
LINE
  5
2C9
100
AcDbEntity
  8
LAY-2
  6
CONTINUOUS
 62
     6
100
AcDbLine
 10
54.974408
 20
137.840273
 30
0.0
 11
55.424408
 21
137.840273
 31
0.0
  0
LINE
  5
2CA
100
AcDbEntity
  8
LAY-2
  6
CONTINUOUS
 62
     6
100
AcDbLine
 10
54.974408
 20
139.040273
 30
0.0
 11
55.424408
 21
139.040273
 31
0.0
  0
LINE
  5
2CB
100
AcDbEntity
  8
LAY-2
  6
CONTINUOUS
 62
     6
100
AcDbLine
 10
55.224408
 20
142.3
 30
0.0
 11
55.224408
 21
139.040273
 31
0.0
  0
LINE
  5
2CC
100
AcDbEntity
  8
LAY-2
  6
CONTINUOUS
 62
     6
100
AcDbLine
 10
80.624411
 20
130.3
 30
0.0
 11
81.024411
 21
130.3
 31
0.0
  0
LINE
  5
2CD
100
AcDbEntity
  8
LAY-2
  6
CONTINUOUS
 62
     6
100
AcDbLine
 10
81.024411
 20
133.3
 30
0.0
 11
80.624411
 21
133.3
 31
0.0
  0
LINE
  5
2CE
100
AcDbEntity
  8
LAY-2
  6
CONTINUOUS
 62
     2
100
AcDbLine
 10
80.024411
 20
127.9
 30
0.0
 11
80.024411
 21
127.3
 31
0.0
  0
LINE
  5
2CF
100
AcDbEntity
  8
LAY-2
  6
CONTINUOUS
 62
     6
100
AcDbLine
 10
80.824411
 20
128.4
 30
0.0
 11
81.074411
 21
128.4
 31
0.0
  0
LINE
  5
2D0
100
AcDbEntity
  8
LAY-2
  6
CONTINUOUS
 62
     6
100
AcDbLine
 10
80.824411
 20
129.4
 30
0.0
 11
81.074411
 21
129.4
 31
0.0
  0
LINE
  5
2D1
100
AcDbEntity
  8
LAY-2
  6
CONTINUOUS
 62
     6
100
AcDbLine
 10
80.824411
 20
129.9
 30
0.0
 11
80.624411
 21
129.9
 31
0.0
  0
LINE
  5
2D2
100
AcDbEntity
  8
LAY-2
  6
CONTINUOUS
 62
     6
100
AcDbLine
 10
80.824411
 20
127.9
 30
0.0
 11
80.824411
 21
129.9
 31
0.0
  0
LINE
  5
2D3
100
AcDbEntity
  8
LAY-2
  6
CONTINUOUS
 62
     6
100
AcDbLine
 10
80.824411
 20
137.840273
 30
0.0
 11
80.824411
 21
137.1
 31
0.0
  0
LINE
  5
2D4
100
AcDbEntity
  8
LAY-2
  6
CONTINUOUS
 62
     6
100
AcDbLine
 10
80.824411
 20
137.1
 30
0.0
 11
80.624411
 21
137.1
 31
0.0
  0
LINE
  5
2D5
100
AcDbEntity
  8
LAY-2
  6
CONTINUOUS
 62
     6
100
AcDbLine
 10
80.824411
 20
142.3
 30
0.0
 11
80.624411
 21
142.3
 31
0.0
  0
LINE
  5
2D6
100
AcDbEntity
  8
LAY-2
  6
CONTINUOUS
 62
     6
100
AcDbLine
 10
80.824411
 20
137.72
 30
0.0
 11
81.074411
 21
137.72
 31
0.0
  0
LINE
  5
2D7
100
AcDbEntity
  8
LAY-2
  6
CONTINUOUS
 62
     6
100
AcDbLine
 10
80.824411
 20
141.68
 30
0.0
 11
81.074411
 21
141.68
 31
0.0
  0
LINE
  5
2D8
100
AcDbEntity
  8
LAY-2
  6
CONTINUOUS
 62
     6
100
AcDbLine
 10
81.074411
 20
134.3
 30
0.0
 11
80.624411
 21
134.3
 31
0.0
  0
LINE
  5
2D9
100
AcDbEntity
  8
LAY-2
  6
CONTINUOUS
 62
     6
100
AcDbLine
 10
81.074411
 20
135.5
 30
0.0
 11
80.624411
 21
135.5
 31
0.0
  0
LINE
  5
2DA
100
AcDbEntity
  8
LAY-2
  6
CONTINUOUS
 62
     6
100
AcDbLine
 10
81.074411
 20
136.3
 30
0.0
 11
80.624411
 21
136.3
 31
0.0
  0
LINE
  5
2DB
100
AcDbEntity
  8
LAY-2
  6
CONTINUOUS
 62
     6
100
AcDbLine
 10
81.074411
 20
137.5
 30
0.0
 11
80.824411
 21
137.5
 31
0.0
  0
LINE
  5
2DC
100
AcDbEntity
  8
LAY-2
  6
CONTINUOUS
 62
     6
100
AcDbLine
 10
81.074411
 20
137.840273
 30
0.0
 11
80.624411
 21
137.840273
 31
0.0
  0
LINE
  5
2DD
100
AcDbEntity
  8
LAY-2
  6
CONTINUOUS
 62
     6
100
AcDbLine
 10
81.074411
 20
139.040273
 30
0.0
 11
80.624411
 21
139.040273
 31
0.0
  0
LINE
  5
2DE
100
AcDbEntity
  8
LAY-2
  6
CONTINUOUS
 62
     6
100
AcDbLine
 10
80.824411
 20
142.3
 30
0.0
 11
80.824411
 21
139.040273
 31
0.0
  0
LINE
  5
2DF
100
AcDbEntity
  8
LAY-2
  6
CONTINUOUS
 62
     6
100
AcDbLine
 10
161.209448
 20
107.5
 30
0.0
 11
165.885132
 21
107.5
 31
0.0
  0
LINE
  5
2E0
100
AcDbEntity
  8
LAY-2
  6
CONTINUOUS
 62
     6
100
AcDbLine
 10
165.885168
 20
106.9
 30
0.0
 11
161.209448
 21
106.9
 31
0.0
  0
CIRCLE
  5
2E1
100
AcDbEntity
  8
LAY-2
  6
EXLTYPE4
 62
     6
100
AcDbCircle
 10
145.609448
 20
111.682858
 30
0.0
 40
3.8
  0
CIRCLE
  5
2E2
100
AcDbEntity
  8
LAY-2
  6
EXLTYPE4
 62
     6
100
AcDbCircle
 10
145.609448
 20
111.682858
 30
0.0
 40
11.5
  0
ARC
  5
2E3
100
AcDbEntity
  8
LAY-2
  6
CONTINUOUS
 62
     2
100
AcDbCircle
 10
145.609448
 20
110.7
 30
0.0
 40
8.0
100
AcDbArc
 50
183.10144
 51
356.89856
  0
ARC
  5
2E4
100
AcDbEntity
  8
LAY-2
  6
CONTINUOUS
 62
     7
100
AcDbCircle
 10
145.609448
 20
110.7
 30
0.0
 40
12.0
100
AcDbArc
 50
183.10144
 51
356.89856
  0
LINE
  5
2E5
100
AcDbEntity
  8
LAY-2
  6
CONTINUOUS
 62
     7
100
AcDbLine
 10
153.57439
 20
101.724493
 30
0.0
 11
161.209448
 21
101.924426
 31
0.0
  0
ARC
  5
2E6
100
AcDbEntity
  8
LAY-2
  6
CONTINUOUS
 62
     6
100
AcDbCircle
 10
112.009451
 20
139.700002
 30
0.0
 40
0.4
100
AcDbArc
 50
134.999756
 51
270.954956
  0
LINE
  5
2E7
100
AcDbEntity
  8
LAY-2
  6
CONTINUOUS
 62
     6
100
AcDbLine
 10
111.726611
 20
139.982845
 30
0.0
 11
112.023463
 21
140.279695
 31
0.0
  0
LINE
  5
2E8
100
AcDbEntity
  8
LAY-2
  6
CONTINUOUS
 62
     6
100
AcDbLine
 10
118.00945
 20
129.307698
 30
0.0
 11
118.959567
 21
130.153343
 31
0.0
  0
ARC
  5
2E9
100
AcDbEntity
  8
LAY-2
  6
CONTINUOUS
 62
     6
100
AcDbCircle
 10
145.250647
 20
126.143472
 30
0.0
 40
0.8
100
AcDbArc
 50
296.420959
 51
206.421143
  0
ARC
  5
2EA
100
AcDbEntity
  8
LAY-2
  6
CONTINUOUS
 62
     2
100
AcDbCircle
 10
413.216901
 20
125.2
 30
0.0
 40
276.0
100
AcDbArc
 50
176.89856
 51
183.10144
  0
ARC
  5
2EB
100
AcDbEntity
  8
LAY-2
  6
CONTINUOUS
 62
     2
100
AcDbCircle
 10
-121.997992
 20
125.2
 30
0.0
 40
276.0
100
AcDbArc
 50
356.89856
 51
3.101471
  0
ARC
  5
2EC
100
AcDbEntity
  8
LAY-2
  6
CONTINUOUS
 62
     7
100
AcDbCircle
 10
413.216901
 20
125.2
 30
0.0
 40
280.0
100
AcDbArc
 50
176.89856
 51
183.10144
  0
ARC
  5
2ED
100
AcDbEntity
  8
LAY-2
  6
CONTINUOUS
 62
     7
100
AcDbCircle
 10
-121.997992
 20
125.2
 30
0.0
 40
280.0
100
AcDbArc
 50
356.89856
 51
3.101471
  0
LINE
  5
2EE
100
AcDbEntity
  8
LAY-2
  6
CONTINUOUS
 62
     6
100
AcDbLine
 10
135.076895
 20
117.403638
 30
0.0
 11
135.343872
 21
116.866309
 31
0.0
  0
CIRCLE
  5
2EF
100
AcDbEntity
  8
LAY-2
  6
EXLTYPE4
 62
     6
100
AcDbCircle
 10
148.509448
 20
138.00392
 30
0.0
 40
11.5
  0
ARC
  5
2F0
100
AcDbEntity
  8
LAY-2
  6
CONTINUOUS
 62
     6
100
AcDbCircle
 10
134.809451
 20
128.9
 30
0.0
 40
1.0
100
AcDbArc
 50
180.0
 51
0.0
  0
ARC
  5
2F1
100
AcDbEntity
  8
LAY-2
  6
CONTINUOUS
 62
     6
100
AcDbCircle
 10
134.809451
 20
128.9
 30
0.0
 40
1.0
100
AcDbArc
 50
0.0
 51
180.0
  0
ARC
  5
2F2
100
AcDbEntity
  8
LAY-2
  6
CONTINUOUS
 62
     6
100
AcDbCircle
 10
134.809451
 20
128.9
 30
0.0
 40
0.5
100
AcDbArc
 50
180.0
 51
0.0
  0
ARC
  5
2F3
100
AcDbEntity
  8
LAY-2
  6
CONTINUOUS
 62
     6
100
AcDbCircle
 10
134.809451
 20
128.9
 30
0.0
 40
0.5
100
AcDbArc
 50
0.0
 51
180.0
  0
ARC
  5
2F4
100
AcDbEntity
  8
LAY-2
  6
CONTINUOUS
 62
     6
100
AcDbCircle
 10
135.209451
 20
128.101447
 30
0.0
 40
0.6
100
AcDbArc
 50
269.817261
 51
0.0
  0
LINE
  5
2F5
100
AcDbEntity
  8
LAY-2
  6
CONTINUOUS
 62
     6
100
AcDbLine
 10
133.309451
 20
128.9
 30
0.0
 11
134.142786
 21
129.645355
 31
0.0
  0
LINE
  5
2F6
100
AcDbEntity
  8
LAY-2
  6
CONTINUOUS
 62
     6
100
AcDbLine
 10
135.809451
 20
128.9
 30
0.0
 11
135.809451
 21
128.101447
 31
0.0
  0
LINE
  5
2F7
100
AcDbEntity
  8
LAY-2
  6
CONTINUOUS
 62
     6
100
AcDbLine
 10
165.885132
 20
107.5
 30
0.0
 11
166.609393
 21
107.2
 31
0.0
  0
LINE
  5
2F8
100
AcDbEntity
  8
LAY-2
  6
CONTINUOUS
 62
     6
100
AcDbLine
 10
166.609436
 20
107.2
 30
0.0
 11
165.885175
 21
106.9
 31
0.0
  0
ARC
  5
2F9
100
AcDbEntity
  8
LAY-2
  6
CONTINUOUS
 62
     7
100
AcDbCircle
 10
79.848984
 20
229.73855
 30
0.0
 40
50.0
100
AcDbArc
 50
230.938049
 51
238.298706
  0
ARC
  5
2FA
100
AcDbEntity
  8
LAY-2
  6
CONTINUOUS
 62
     7
100
AcDbCircle
 10
79.849014
 20
169.458682
 30
0.0
 40
50.0
100
AcDbArc
 50
121.701355
 51
129.062012
  0
ARC
  5
2FB
100
AcDbEntity
  8
LAY-2
  6
CONTINUOUS
 62
     7
100
AcDbCircle
 10
80.23085
 20
109.398294
 30
0.0
 40
50.0
100
AcDbArc
 50
122.217102
 51
129.477478
  0
ARC
  5
2FC
100
AcDbEntity
  8
LAY-2
  6
CONTINUOUS
 62
     7
100
AcDbCircle
 10
49.077887
 20
147.220156
 30
0.0
 40
1.0
100
AcDbArc
 50
129.477417
 51
178.420776
  0
ARC
  5
2FD
100
AcDbEntity
  8
LAY-2
  6
CONTINUOUS
 62
     7
100
AcDbCircle
 10
207.774408
 20
199.598602
 30
0.0
 40
160.0
100
AcDbArc
 50
177.149597
 51
182.850403
  0
ARC
  5
2FE
100
AcDbEntity
  8
LAY-2
  6
CONTINUOUS
 62
     7
100
AcDbCircle
 10
48.971124
 20
191.691763
 30
0.0
 40
1.0
100
AcDbArc
 50
182.850403
 51
230.938171
  0
ARC
  5
2FF
100
AcDbEntity
  8
LAY-2
  6
CONTINUOUS
 62
     7
100
AcDbCircle
 10
48.971136
 20
207.505423
 30
0.0
 40
1.0
100
AcDbArc
 50
129.062103
 51
177.149597
  0
ARC
  5
300
100
AcDbEntity
  8
LAY-2
  6
CONTINUOUS
 62
     7
100
AcDbCircle
 10
56.199835
 20
229.73855
 30
0.0
 40
50.0
100
AcDbArc
 50
301.701294
 51
309.061951
  0
LINE
  5
301
100
AcDbEntity
  8
LAY-2
  6
CONTINUOUS
 62
     2
100
AcDbLine
 10
53.57442
 20
187.198602
 30
0.0
 11
53.57442
 21
211.998602
 31
0.0
  0
LINE
  5
302
100
AcDbEntity
  8
LAY-2
  6
CONTINUOUS
 62
     7
100
AcDbLine
 10
54.974408
 20
211.998602
 30
0.0
 11
54.974408
 21
187.198602
 31
0.0
  0
LINE
  5
303
100
AcDbEntity
  8
LAY-2
  6
CONTINUOUS
 62
     6
100
AcDbLine
 10
55.224408
 20
187.798602
 30
0.0
 11
55.224408
 21
189.798602
 31
0.0
  0
LINE
  5
304
100
AcDbEntity
  8
LAY-2
  6
CONTINUOUS
 62
     6
100
AcDbLine
 10
80.824411
 20
187.798602
 30
0.0
 11
80.824411
 21
189.798602
 31
0.0
  0
LINE
  5
305
100
AcDbEntity
  8
LAY-2
  6
CONTINUOUS
 62
     2
100
AcDbLine
 10
56.224408
 20
189.206302
 30
0.0
 11
56.224408
 21
204.106119
 31
0.0
  0
LINE
  5
306
100
AcDbEntity
  8
LAY-2
  6
CONTINUOUS
 62
     2
100
AcDbLine
 10
79.824411
 20
189.206302
 30
0.0
 11
79.824411
 21
204.106119
 31
0.0
  0
LINE
  5
307
100
AcDbEntity
  8
LAY-2
  6
CONTINUOUS
 62
     2
100
AcDbLine
 10
55.424408
 20
187.398602
 30
0.0
 11
55.424408
 21
209.998605
 31
0.0
  0
LINE
  5
308
100
AcDbEntity
  8
LAY-2
  6
CONTINUOUS
 62
     2
100
AcDbLine
 10
80.624411
 20
187.398602
 30
0.0
 11
80.624411
 21
209.998605
 31
0.0
  0
LINE
  5
309
100
AcDbEntity
  8
LAY-2
  6
CONTINUOUS
 62
     2
100
AcDbLine
 10
82.474396
 20
187.198602
 30
0.0
 11
82.474396
 21
211.998602
 31
0.0
  0
LINE
  5
30A
100
AcDbEntity
  8
LAY-2
  6
CONTINUOUS
 62
     7
100
AcDbLine
 10
81.074411
 20
211.998602
 30
0.0
 11
81.074411
 21
187.198602
 31
0.0
  0
LINE
  5
30B
100
AcDbEntity
  8
LAY-2
  6
CONTINUOUS
 62
     7
100
AcDbLine
 10
82.474396
 20
187.198602
 30
0.0
 11
81.074411
 21
187.198602
 31
0.0
  0
LINE
  5
30C
100
AcDbEntity
  8
LAY-2
  6
CONTINUOUS
 62
     7
100
AcDbLine
 10
81.074411
 20
151.7
 30
0.0
 11
82.474408
 21
151.7
 31
0.0
  0
LINE
  5
30D
100
AcDbEntity
  8
LAY-2
  6
CONTINUOUS
 62
     2
100
AcDbLine
 10
62.424411
 20
152.1
 30
0.0
 11
73.624411
 21
152.1
 31
0.0
  0
LINE
  5
30E
100
AcDbEntity
  8
LAY-2
  6
CONTINUOUS
 62
     2
100
AcDbLine
 10
56.024408
 20
153.059105
 30
0.0
 11
80.024411
 21
153.059105
 31
0.0
  0
LINE
  5
30F
100
AcDbEntity
  8
LAY-2
  6
CONTINUOUS
 62
     2
100
AcDbLine
 10
56.224408
 20
151.7
 30
0.0
 11
79.824411
 21
151.7
 31
0.0
  0
LINE
  5
310
100
AcDbEntity
  8
LAY-2
  6
CONTINUOUS
 62
     7
100
AcDbLine
 10
56.224408
 20
154.2
 30
0.0
 11
79.824411
 21
154.2
 31
0.0
  0
LINE
  5
311
100
AcDbEntity
  8
LAY-2
  6
CONTINUOUS
 62
     2
100
AcDbLine
 10
56.224408
 20
145.699999
 30
0.0
 11
56.224408
 21
151.7
 31
0.0
  0
LINE
  5
312
100
AcDbEntity
  8
LAY-2
  6
CONTINUOUS
 62
     2
100
AcDbLine
 10
56.024408
 20
145.699999
 30
0.0
 11
56.024408
 21
154.2
 31
0.0
  0
ARC
  5
313
100
AcDbEntity
  8
LAY-2
  6
CONTINUOUS
 62
     2
100
AcDbCircle
 10
55.824408
 20
149.7
 30
0.0
 40
0.4
100
AcDbArc
 50
90.0
 51
180.0
  0
LINE
  5
314
100
AcDbEntity
  8
LAY-2
  6
CONTINUOUS
 62
     2
100
AcDbLine
 10
56.224408
 20
150.500003
 30
0.0
 11
56.024408
 21
150.500003
 31
0.0
  0
LINE
  5
315
100
AcDbEntity
  8
LAY-2
  6
CONTINUOUS
 62
     2
100
AcDbLine
 10
56.224408
 20
145.699999
 30
0.0
 11
55.424408
 21
145.699999
 31
0.0
  0
LINE
  5
316
100
AcDbEntity
  8
LAY-2
  6
CONTINUOUS
 62
     2
100
AcDbLine
 10
55.824408
 20
150.1
 30
0.0
 11
56.024408
 21
150.1
 31
0.0
  0
ARC
  5
317
100
AcDbEntity
  8
LAY-2
  6
CONTINUOUS
 62
     7
100
AcDbCircle
 10
55.824408
 20
153.8
 30
0.0
 40
0.4
100
AcDbArc
 50
90.0
 51
180.0
  0
LINE
  5
318
100
AcDbEntity
  8
LAY-2
  6
CONTINUOUS
 62
     2
100
AcDbLine
 10
56.224408
 20
153.059105
 30
0.0
 11
56.224408
 21
154.2
 31
0.0
  0
LINE
  5
319
100
AcDbEntity
  8
LAY-2
  6
CONTINUOUS
 62
     7
100
AcDbLine
 10
53.574408
 20
151.7
 30
0.0
 11
54.974408
 21
151.7
 31
0.0
  0
LINE
  5
31A
100
AcDbEntity
  8
LAY-2
  6
CONTINUOUS
 62
     7
100
AcDbLine
 10
56.024408
 20
154.1
 30
0.0
 11
56.224408
 21
154.1
 31
0.0
  0
LINE
  5
31B
100
AcDbEntity
  8
LAY-2
  6
CONTINUOUS
 62
     7
100
AcDbLine
 10
56.024408
 20
154.2
 30
0.0
 11
55.824408
 21
154.2
 31
0.0
  0
ARC
  5
31C
100
AcDbEntity
  8
LAY-2
  6
CONTINUOUS
 62
     2
100
AcDbCircle
 10
62.424411
 20
151.7
 30
0.0
 40
0.4
100
AcDbArc
 50
90.0
 51
180.0
  0
LINE
  5
31D
100
AcDbEntity
  8
LAY-2
  6
CONTINUOUS
 62
     2
100
AcDbLine
 10
79.824411
 20
145.699999
 30
0.0
 11
79.824411
 21
151.7
 31
0.0
  0
LINE
  5
31E
100
AcDbEntity
  8
LAY-2
  6
CONTINUOUS
 62
     2
100
AcDbLine
 10
80.024411
 20
145.699999
 30
0.0
 11
80.024411
 21
154.2
 31
0.0
  0
ARC
  5
31F
100
AcDbEntity
  8
LAY-2
  6
CONTINUOUS
 62
     2
100
AcDbCircle
 10
80.224411
 20
149.7
 30
0.0
 40
0.4
100
AcDbArc
 50
0.0
 51
90.0
  0
LINE
  5
320
100
AcDbEntity
  8
LAY-2
  6
CONTINUOUS
 62
     2
100
AcDbLine
 10
80.024411
 20
150.500003
 30
0.0
 11
79.824411
 21
150.500003
 31
0.0
  0
LINE
  5
321
100
AcDbEntity
  8
LAY-2
  6
CONTINUOUS
 62
     2
100
AcDbLine
 10
80.624411
 20
145.699999
 30
0.0
 11
79.824411
 21
145.699999
 31
0.0
  0
LINE
  5
322
100
AcDbEntity
  8
LAY-2
  6
CONTINUOUS
 62
     2
100
AcDbLine
 10
80.224411
 20
150.1
 30
0.0
 11
80.024411
 21
150.1
 31
0.0
  0
ARC
  5
323
100
AcDbEntity
  8
LAY-2
  6
CONTINUOUS
 62
     2
100
AcDbCircle
 10
73.624411
 20
151.7
 30
0.0
 40
0.4
100
AcDbArc
 50
0.0
 51
90.0
  0
ARC
  5
324
100
AcDbEntity
  8
LAY-2
  6
CONTINUOUS
 62
     7
100
AcDbCircle
 10
80.224411
 20
153.8
 30
0.0
 40
0.4
100
AcDbArc
 50
0.0
 51
90.0
  0
LINE
  5
325
100
AcDbEntity
  8
LAY-2
  6
CONTINUOUS
 62
     2
100
AcDbLine
 10
79.824411
 20
153.059105
 30
0.0
 11
79.824411
 21
154.2
 31
0.0
  0
LINE
  5
326
100
AcDbEntity
  8
LAY-2
  6
CONTINUOUS
 62
     7
100
AcDbLine
 10
79.824411
 20
154.1
 30
0.0
 11
80.024411
 21
154.1
 31
0.0
  0
LINE
  5
327
100
AcDbEntity
  8
LAY-2
  6
CONTINUOUS
 62
     7
100
AcDbLine
 10
80.024411
 20
154.2
 30
0.0
 11
80.224411
 21
154.2
 31
0.0
  0
LINE
  5
328
100
AcDbEntity
  8
LAY-2
  6
CONTINUOUS
 62
     7
100
AcDbLine
 10
80.624411
 20
187.398602
 30
0.0
 11
55.424408
 21
187.398602
 31
0.0
  0
LINE
  5
329
100
AcDbEntity
  8
LAY-2
  6
CONTINUOUS
 62
     7
100
AcDbLine
 10
53.57442
 20
187.198602
 30
0.0
 11
54.974408
 21
187.198602
 31
0.0
  0
LINE
  5
32A
100
AcDbEntity
  8
LAY-2
  6
CONTINUOUS
 62
     6
100
AcDbLine
 10
55.224408
 20
187.798602
 30
0.0
 11
55.424408
 21
187.798602
 31
0.0
  0
LINE
  5
32B
100
AcDbEntity
  8
LAY-2
  6
CONTINUOUS
 62
     6
100
AcDbLine
 10
55.224408
 20
188.298602
 30
0.0
 11
54.974408
 21
188.298602
 31
0.0
  0
LINE
  5
32C
100
AcDbEntity
  8
LAY-2
  6
CONTINUOUS
 62
     6
100
AcDbLine
 10
55.224408
 20
189.298602
 30
0.0
 11
54.974408
 21
189.298602
 31
0.0
  0
LINE
  5
32D
100
AcDbEntity
  8
LAY-2
  6
CONTINUOUS
 62
     2
100
AcDbLine
 10
56.224408
 20
189.206302
 30
0.0
 11
55.424408
 21
189.206302
 31
0.0
  0
LINE
  5
32E
100
AcDbEntity
  8
LAY-2
  6
CONTINUOUS
 62
     6
100
AcDbLine
 10
80.824411
 20
187.798602
 30
0.0
 11
80.624411
 21
187.798602
 31
0.0
  0
LINE
  5
32F
100
AcDbEntity
  8
LAY-2
  6
CONTINUOUS
 62
     6
100
AcDbLine
 10
80.824411
 20
188.298602
 30
0.0
 11
81.074411
 21
188.298602
 31
0.0
  0
LINE
  5
330
100
AcDbEntity
  8
LAY-2
  6
CONTINUOUS
 62
     6
100
AcDbLine
 10
80.824411
 20
189.298602
 30
0.0
 11
81.074411
 21
189.298602
 31
0.0
  0
LINE
  5
331
100
AcDbEntity
  8
LAY-2
  6
CONTINUOUS
 62
     2
100
AcDbLine
 10
80.624411
 20
189.206302
 30
0.0
 11
79.824411
 21
189.206302
 31
0.0
  0
ARC
  5
332
100
AcDbEntity
  8
LAY-2
  6
CONTINUOUS
 62
     7
100
AcDbCircle
 10
55.817877
 20
109.398358
 30
0.0
 40
50.0
100
AcDbArc
 50
50.522308
 51
57.782776
  0
ARC
  5
333
100
AcDbEntity
  8
LAY-2
  6
CONTINUOUS
 62
     7
100
AcDbCircle
 10
86.970901
 20
147.219994
 30
0.0
 40
1.0
100
AcDbArc
 50
1.579224
 51
50.522308
  0
LINE
  5
334
100
AcDbEntity
  8
LAY-2
  6
CONTINUOUS
 62
     7
100
AcDbLine
 10
82.474396
 20
211.998602
 30
0.0
 11
81.074411
 21
211.998602
 31
0.0
  0
LINE
  5
335
100
AcDbEntity
  8
LAY-2
  6
CONTINUOUS
 62
     2
100
AcDbLine
 10
79.824411
 20
204.106119
 30
0.0
 11
79.824411
 21
209.998605
 31
0.0
  0
LINE
  5
336
100
AcDbEntity
  8
LAY-2
  6
CONTINUOUS
 62
     2
100
AcDbLine
 10
56.224408
 20
204.106119
 30
0.0
 11
56.224408
 21
209.998605
 31
0.0
  0
LINE
  5
337
100
AcDbEntity
  8
LAY-2
  6
CONTINUOUS
 62
     2
100
AcDbLine
 10
56.024408
 20
209.998605
 30
0.0
 11
56.024408
 21
190.051947
 31
0.0
  0
LINE
  5
338
100
AcDbEntity
  8
LAY-2
  6
CONTINUOUS
 62
     2
100
AcDbLine
 10
80.024411
 20
209.998605
 30
0.0
 11
80.024411
 21
190.051947
 31
0.0
  0
LINE
  5
339
100
AcDbEntity
  8
LAY-2
  6
CONTINUOUS
 62
     2
100
AcDbLine
 10
62.024411
 20
200.178299
 30
0.0
 11
74.024411
 21
200.178299
 31
0.0
  0
LINE
  5
33A
100
AcDbEntity
  8
LAY-2
  6
CONTINUOUS
 62
     2
100
AcDbLine
 10
74.024411
 20
199.198605
 30
0.0
 11
62.024411
 21
199.198605
 31
0.0
  0
LINE
  5
33B
100
AcDbEntity
  8
LAY-2
  6
CONTINUOUS
 62
     2
100
AcDbLine
 10
56.370648
 20
204.92551
 30
0.0
 11
79.678229
 21
204.92551
 31
0.0
  0
LINE
  5
33C
100
AcDbEntity
  8
LAY-2
  6
CONTINUOUS
 62
     2
100
AcDbLine
 10
80.024411
 20
204.106119
 30
0.0
 11
56.024408
 21
204.106119
 31
0.0
  0
LINE
  5
33D
100
AcDbEntity
  8
LAY-2
  6
CONTINUOUS
 62
     6
100
AcDbLine
 10
55.224408
 20
196.998602
 30
0.0
 11
55.224408
 21
202.198602
 31
0.0
  0
LINE
  5
33E
100
AcDbEntity
  8
LAY-2
  6
CONTINUOUS
 62
     6
100
AcDbLine
 10
54.974408
 20
193.542133
 30
0.0
 11
55.424408
 21
193.542133
 31
0.0
  0
LINE
  5
33F
100
AcDbEntity
  8
LAY-2
  6
CONTINUOUS
 62
     6
100
AcDbLine
 10
54.974408
 20
194.742133
 30
0.0
 11
55.424408
 21
194.742133
 31
0.0
  0
LINE
  5
340
100
AcDbEntity
  8
LAY-2
  6
CONTINUOUS
 62
     6
100
AcDbLine
 10
55.224408
 20
196.998602
 30
0.0
 11
55.424408
 21
196.998602
 31
0.0
  0
LINE
  5
341
100
AcDbEntity
  8
LAY-2
  6
CONTINUOUS
 62
     6
100
AcDbLine
 10
55.224408
 20
197.618604
 30
0.0
 11
54.974408
 21
197.618604
 31
0.0
  0
LINE
  5
342
100
AcDbEntity
  8
LAY-2
  6
CONTINUOUS
 62
     6
100
AcDbLine
 10
55.424408
 20
189.798602
 30
0.0
 11
55.224408
 21
189.798602
 31
0.0
  0
LINE
  5
343
100
AcDbEntity
  8
LAY-2
  6
CONTINUOUS
 62
     2
100
AcDbLine
 10
56.224408
 20
190.051947
 30
0.0
 11
55.424408
 21
190.051947
 31
0.0
  0
LINE
  5
344
100
AcDbEntity
  8
LAY-2
  6
CONTINUOUS
 62
     6
100
AcDbLine
 10
54.974408
 20
203.848349
 30
0.0
 11
55.424408
 21
203.848349
 31
0.0
  0
LINE
  5
345
100
AcDbEntity
  8
LAY-2
  6
CONTINUOUS
 62
     6
100
AcDbLine
 10
54.974408
 20
205.048349
 30
0.0
 11
55.424408
 21
205.048349
 31
0.0
  0
LINE
  5
346
100
AcDbEntity
  8
LAY-2
  6
CONTINUOUS
 62
     6
100
AcDbLine
 10
55.224408
 20
202.198602
 30
0.0
 11
55.424408
 21
202.198602
 31
0.0
  0
LINE
  5
347
100
AcDbEntity
  8
LAY-2
  6
CONTINUOUS
 62
     6
100
AcDbLine
 10
55.224408
 20
201.578601
 30
0.0
 11
54.974408
 21
201.578601
 31
0.0
  0
LINE
  5
348
100
AcDbEntity
  8
LAY-2
  6
CONTINUOUS
 62
     2
100
AcDbLine
 10
55.424408
 20
200.631418
 30
0.0
 11
56.024408
 21
200.631418
 31
0.0
  0
LINE
  5
349
100
AcDbEntity
  8
LAY-2
  6
CONTINUOUS
 62
     2
100
AcDbLine
 10
62.024411
 20
200.086029
 30
0.0
 11
62.024411
 21
199.365289
 31
0.0
  0
LINE
  5
34A
100
AcDbEntity
  8
LAY-2
  6
CONTINUOUS
 62
     6
100
AcDbLine
 10
80.824411
 20
196.998602
 30
0.0
 11
80.824411
 21
202.198602
 31
0.0
  0
LINE
  5
34B
100
AcDbEntity
  8
LAY-2
  6
CONTINUOUS
 62
     6
100
AcDbLine
 10
81.074411
 20
193.542133
 30
0.0
 11
80.624411
 21
193.542133
 31
0.0
  0
LINE
  5
34C
100
AcDbEntity
  8
LAY-2
  6
CONTINUOUS
 62
     6
100
AcDbLine
 10
81.074411
 20
194.742133
 30
0.0
 11
80.624411
 21
194.742133
 31
0.0
  0
LINE
  5
34D
100
AcDbEntity
  8
LAY-2
  6
CONTINUOUS
 62
     6
100
AcDbLine
 10
80.824411
 20
196.998602
 30
0.0
 11
80.624411
 21
196.998602
 31
0.0
  0
LINE
  5
34E
100
AcDbEntity
  8
LAY-2
  6
CONTINUOUS
 62
     6
100
AcDbLine
 10
80.824411
 20
197.618604
 30
0.0
 11
81.074411
 21
197.618604
 31
0.0
  0
LINE
  5
34F
100
AcDbEntity
  8
LAY-2
  6
CONTINUOUS
 62
     6
100
AcDbLine
 10
80.624411
 20
189.798602
 30
0.0
 11
80.824411
 21
189.798602
 31
0.0
  0
LINE
  5
350
100
AcDbEntity
  8
LAY-2
  6
CONTINUOUS
 62
     2
100
AcDbLine
 10
80.624411
 20
190.051947
 30
0.0
 11
79.824411
 21
190.051947
 31
0.0
  0
LINE
  5
351
100
AcDbEntity
  8
LAY-2
  6
CONTINUOUS
 62
     2
100
AcDbLine
 10
74.024411
 20
200.086029
 30
0.0
 11
74.024411
 21
199.299768
 31
0.0
  0
LINE
  5
352
100
AcDbEntity
  8
LAY-2
  6
CONTINUOUS
 62
     6
100
AcDbLine
 10
81.074411
 20
203.848349
 30
0.0
 11
80.624411
 21
203.848349
 31
0.0
  0
LINE
  5
353
100
AcDbEntity
  8
LAY-2
  6
CONTINUOUS
 62
     6
100
AcDbLine
 10
81.074411
 20
205.048349
 30
0.0
 11
80.624411
 21
205.048349
 31
0.0
  0
LINE
  5
354
100
AcDbEntity
  8
LAY-2
  6
CONTINUOUS
 62
     6
100
AcDbLine
 10
80.824411
 20
202.198602
 30
0.0
 11
80.624411
 21
202.198602
 31
0.0
  0
LINE
  5
355
100
AcDbEntity
  8
LAY-2
  6
CONTINUOUS
 62
     6
100
AcDbLine
 10
80.824411
 20
201.578601
 30
0.0
 11
81.074411
 21
201.578601
 31
0.0
  0
LINE
  5
356
100
AcDbEntity
  8
LAY-2
  6
CONTINUOUS
 62
     2
100
AcDbLine
 10
80.024411
 20
200.631418
 30
0.0
 11
80.624411
 21
200.631418
 31
0.0
  0
LINE
  5
357
100
AcDbEntity
  8
LAY-2
  6
CONTINUOUS
 62
     7
100
AcDbLine
 10
80.824411
 20
215.198615
 30
0.0
 11
55.224371
 21
215.198621
 31
0.0
  0
LINE
  5
358
100
AcDbEntity
  8
LAY-2
  6
CONTINUOUS
 62
     2
100
AcDbLine
 10
55.424408
 20
209.998605
 30
0.0
 11
80.624411
 21
209.998605
 31
0.0
  0
LINE
  5
359
100
AcDbEntity
  8
LAY-2
  6
CONTINUOUS
 62
     7
100
AcDbLine
 10
54.974408
 20
211.438602
 30
0.0
 11
55.125909
 21
211.438602
 31
0.0
  0
LINE
  5
35A
100
AcDbEntity
  8
LAY-2
  6
CONTINUOUS
 62
     6
100
AcDbLine
 10
54.974408
 20
207.312448
 30
0.0
 11
55.424408
 21
207.312448
 31
0.0
  0
LINE
  5
35B
100
AcDbEntity
  8
LAY-2
  6
CONTINUOUS
 62
     6
100
AcDbLine
 10
54.974408
 20
208.512448
 30
0.0
 11
55.424408
 21
208.512448
 31
0.0
  0
LINE
  5
35C
100
AcDbEntity
  8
LAY-2
  6
CONTINUOUS
 62
     7
100
AcDbLine
 10
53.57442
 20
211.998602
 30
0.0
 11
54.974408
 21
211.998602
 31
0.0
  0
LINE
  5
35D
100
AcDbEntity
  8
LAY-2
  6
CONTINUOUS
 62
     6
100
AcDbLine
 10
60.024399
 20
220.598578
 30
0.0
 11
60.324399
 21
219.874316
 31
0.0
  0
LINE
  5
35E
100
AcDbEntity
  8
LAY-2
  6
CONTINUOUS
 62
     6
100
AcDbLine
 10
59.724399
 20
219.874274
 30
0.0
 11
60.024399
 21
220.598535
 31
0.0
  0
LINE
  5
35F
100
AcDbEntity
  8
LAY-2
  6
CONTINUOUS
 62
     6
100
AcDbLine
 10
59.724399
 20
215.19859
 30
0.0
 11
59.724399
 21
219.874274
 31
0.0
  0
LINE
  5
360
100
AcDbEntity
  8
LAY-2
  6
CONTINUOUS
 62
     6
100
AcDbLine
 10
60.324399
 20
219.87431
 30
0.0
 11
60.324399
 21
215.19859
 31
0.0
  0
LINE
  5
361
100
AcDbEntity
  8
LAY-2
  6
CONTINUOUS
 62
     7
100
AcDbLine
 10
80.92287
 20
211.438602
 30
0.0
 11
81.074411
 21
211.438602
 31
0.0
  0
LINE
  5
362
100
AcDbEntity
  8
LAY-2
  6
CONTINUOUS
 62
     6
100
AcDbLine
 10
81.074411
 20
207.312448
 30
0.0
 11
80.624411
 21
207.312448
 31
0.0
  0
LINE
  5
363
100
AcDbEntity
  8
LAY-2
  6
CONTINUOUS
 62
     6
100
AcDbLine
 10
81.074411
 20
208.512448
 30
0.0
 11
80.624411
 21
208.512448
 31
0.0
  0
LINE
  5
364
100
AcDbEntity
  8
LAY-2
  6
CONTINUOUS
 62
     6
100
AcDbLine
 10
75.724399
 20
219.874274
 30
0.0
 11
76.024399
 21
220.598535
 31
0.0
  0
LINE
  5
365
100
AcDbEntity
  8
LAY-2
  6
CONTINUOUS
 62
     6
100
AcDbLine
 10
76.024399
 20
220.598578
 30
0.0
 11
76.324399
 21
219.874316
 31
0.0
  0
LINE
  5
366
100
AcDbEntity
  8
LAY-2
  6
CONTINUOUS
 62
     6
100
AcDbLine
 10
75.724399
 20
215.19859
 30
0.0
 11
75.724399
 21
219.874274
 31
0.0
  0
LINE
  5
367
100
AcDbEntity
  8
LAY-2
  6
CONTINUOUS
 62
     6
100
AcDbLine
 10
76.324399
 20
219.87431
 30
0.0
 11
76.324399
 21
215.19859
 31
0.0
  0
ARC
  5
368
100
AcDbEntity
  8
LAY-2
  6
CONTINUOUS
 62
     7
100
AcDbCircle
 10
-71.725592
 20
199.598602
 30
0.0
 40
160.0
100
AcDbArc
 50
357.149597
 51
2.850403
  0
ARC
  5
369
100
AcDbEntity
  8
LAY-2
  6
CONTINUOUS
 62
     7
100
AcDbCircle
 10
87.077692
 20
191.691763
 30
0.0
 40
1.0
100
AcDbArc
 50
309.062012
 51
357.149658
  0
ARC
  5
36A
100
AcDbEntity
  8
LAY-2
  6
CONTINUOUS
 62
     7
100
AcDbCircle
 10
87.077682
 20
207.505423
 30
0.0
 40
1.0
100
AcDbArc
 50
2.850372
 51
50.938019
  0
ARC
  5
36B
100
AcDbEntity
  8
LAY-2
  6
CONTINUOUS
 62
     7
100
AcDbCircle
 10
56.199811
 20
169.458682
 30
0.0
 40
50.0
100
AcDbArc
 50
50.937988
 51
58.298645
  0
LINE
  5
36C
100
AcDbEntity
  8
LAY-2
  6
CONTINUOUS
 62
     6
100
AcDbLine
 10
161.209448
 20
143.5
 30
0.0
 11
165.885132
 21
143.5
 31
0.0
  0
LINE
  5
36D
100
AcDbEntity
  8
LAY-2
  6
CONTINUOUS
 62
     6
100
AcDbLine
 10
165.885168
 20
142.9
 30
0.0
 11
161.209448
 21
142.9
 31
0.0
  0
LINE
  5
36E
100
AcDbEntity
  8
LAY-2
  6
CONTINUOUS
 62
     6
100
AcDbLine
 10
115.009457
 20
147.637251
 30
0.0
 11
115.009457
 21
146.858907
 31
0.0
  0
ARC
  5
36F
100
AcDbEntity
  8
LAY-2
  6
CONTINUOUS
 62
     6
100
AcDbCircle
 10
135.866183
 20
150.566101
 30
0.0
 40
1.0
100
AcDbArc
 50
159.186523
 51
187.915527
  0
LINE
  5
370
100
AcDbEntity
  8
LAY-2
  6
CONTINUOUS
 62
     6
100
AcDbLine
 10
139.522256
 20
150.041472
 30
0.0
 11
139.057654
 21
150.258119
 31
0.0
  0
ARC
  5
371
100
AcDbEntity
  8
LAY-2
  6
CONTINUOUS
 62
     7
100
AcDbCircle
 10
145.609448
 20
151.7
 30
0.0
 40
0.4
100
AcDbArc
 50
44.999756
 51
180.954956
  0
LINE
  5
372
100
AcDbEntity
  8
LAY-2
  6
CONTINUOUS
 62
     7
100
AcDbLine
 10
145.892291
 20
151.98284
 30
0.0
 11
146.189142
 21
151.685988
 31
0.0
  0
ARC
  5
373
100
AcDbEntity
  8
LAY-2
  6
CONTINUOUS
 62
     7
100
AcDbCircle
 10
154.785364
 20
150.900003
 30
0.0
 40
0.4
100
AcDbArc
 50
270.0
 51
328.519043
  0
LINE
  5
374
100
AcDbEntity
  8
LAY-2
  6
CONTINUOUS
 62
     7
100
AcDbLine
 10
153.57439
 20
148.675507
 30
0.0
 11
161.209448
 21
148.475574
 31
0.0
  0
LINE
  5
375
100
AcDbEntity
  8
LAY-2
  6
CONTINUOUS
 62
     7
100
AcDbLine
 10
152.809448
 20
150.500003
 30
0.0
 11
154.785364
 21
150.500003
 31
0.0
  0
ARC
  5
376
100
AcDbEntity
  8
LAY-2
  6
CONTINUOUS
 62
     7
100
AcDbCircle
 10
152.809448
 20
150.100003
 30
0.0
 40
0.4
100
AcDbArc
 50
90.0
 51
180.0
  0
LINE
  5
377
100
AcDbEntity
  8
LAY-2
  6
CONTINUOUS
 62
     7
100
AcDbLine
 10
152.409448
 20
149.587366
 30
0.0
 11
152.409448
 21
150.100003
 31
0.0
  0
ARC
  5
378
100
AcDbEntity
  8
LAY-2
  6
CONTINUOUS
 62
     7
100
AcDbCircle
 10
153.456927
 20
124.2
 30
0.0
 40
30.0
100
AcDbArc
 50
88.077972
 51
94.186584
  0
ARC
  5
379
100
AcDbEntity
  8
LAY-2
  6
CONTINUOUS
 62
     7
100
AcDbCircle
 10
151.339801
 20
153.122617
 30
0.0
 40
1.0
100
AcDbArc
 50
94.186554
 51
122.915527
  0
LINE
  5
37A
100
AcDbEntity
  8
LAY-2
  6
CONTINUOUS
 62
     7
100
AcDbLine
 10
148.114563
 20
151.435604
 30
0.0
 11
150.796417
 21
153.962101
 31
0.0
  0
ARC
  5
37B
100
AcDbEntity
  8
LAY-2
  6
CONTINUOUS
 62
     7
100
AcDbCircle
 10
154.409448
 20
152.584021
 30
0.0
 40
1.6
100
AcDbArc
 50
328.519043
 51
88.078003
  0
LINE
  5
37C
100
AcDbEntity
  8
LAY-2
  6
CONTINUOUS
 62
     7
100
AcDbLine
 10
155.77395
 20
151.748478
 30
0.0
 11
155.126489
 21
150.691117
 31
0.0
  0
LINE
  5
37D
100
AcDbEntity
  8
LAY-2
  6
CONTINUOUS
 62
     6
100
AcDbLine
 10
165.885132
 20
143.5
 30
0.0
 11
166.609393
 21
143.2
 31
0.0
  0
LINE
  5
37E
100
AcDbEntity
  8
LAY-2
  6
CONTINUOUS
 62
     6
100
AcDbLine
 10
166.609436
 20
143.2
 30
0.0
 11
165.885175
 21
142.9
 31
0.0
  0
LINE
  5
37F
100
AcDbEntity
  8
LAY-2
  6
CONTINUOUS
 62
     6
100
AcDbLine
 10
56.624408
 20
112.1
 30
0.0
 11
56.624408
 21
116.866293
 31
0.0
  0
LINE
  5
380
100
AcDbEntity
  8
LAY-2
  6
CONTINUOUS
 62
     6
100
AcDbLine
 10
56.624408
 20
110.1
 30
0.0
 11
56.624408
 21
110.9
 31
0.0
  0
LINE
  5
381
100
AcDbEntity
  8
LAY-2
  6
CONTINUOUS
 62
     6
100
AcDbLine
 10
56.624408
 20
100.349951
 30
0.0
 11
56.624408
 21
106.9
 31
0.0
  0
LINE
  5
382
100
AcDbEntity
  8
LAY-2
  6
CONTINUOUS
 62
     6
100
AcDbLine
 10
56.624408
 20
108.1
 30
0.0
 11
56.624408
 21
108.9
 31
0.0
  0
LINE
  5
383
100
AcDbEntity
  8
LAY-2
  6
CONTINUOUS
 62
     6
100
AcDbLine
 10
79.424414
 20
112.1
 30
0.0
 11
79.424414
 21
116.866293
 31
0.0
  0
LINE
  5
384
100
AcDbEntity
  8
LAY-2
  6
CONTINUOUS
 62
     6
100
AcDbLine
 10
79.424414
 20
110.1
 30
0.0
 11
79.424414
 21
110.9
 31
0.0
  0
LINE
  5
385
100
AcDbEntity
  8
LAY-2
  6
CONTINUOUS
 62
     6
100
AcDbLine
 10
79.424414
 20
100.349951
 30
0.0
 11
79.424414
 21
106.9
 31
0.0
  0
LINE
  5
386
100
AcDbEntity
  8
LAY-2
  6
CONTINUOUS
 62
     6
100
AcDbLine
 10
79.424414
 20
108.1
 30
0.0
 11
79.424414
 21
108.9
 31
0.0
  0
LINE
  5
387
100
AcDbEntity
  8
LAY-2
  6
CONTINUOUS
 62
     6
100
AcDbLine
 10
65.104399
 20
107.2
 30
0.0
 11
66.424411
 21
107.2
 31
0.0
  0
LINE
  5
388
100
AcDbEntity
  8
LAY-2
  6
CONTINUOUS
 62
     6
100
AcDbLine
 10
67.624411
 20
107.2
 30
0.0
 11
68.424411
 21
107.2
 31
0.0
  0
LINE
  5
389
100
AcDbEntity
  8
LAY-2
  6
CONTINUOUS
 62
     6
100
AcDbLine
 10
69.624411
 20
107.2
 30
0.0
 11
70.944399
 21
107.2
 31
0.0
  0
CIRCLE
  5
38A
100
AcDbEntity
  8
LAY-2
  6
CONTINUOUS
 62
     6
100
AcDbCircle
 10
60.024411
 20
143.200012
 30
0.0
 40
0.7
  0
CIRCLE
  5
38B
100
AcDbEntity
  8
LAY-2
  6
CONTINUOUS
 62
     6
100
AcDbCircle
 10
60.024411
 20
143.2
 30
0.0
 40
0.92
  0
ARC
  5
38C
100
AcDbEntity
  8
LAY-2
  6
CONTINUOUS
 62
     6
100
AcDbCircle
 10
59.70441
 20
142.880011
 30
0.0
 40
0.2
100
AcDbArc
 50
0.0
 51
90.0
  0
ARC
  5
38D
100
AcDbEntity
  8
LAY-2
  6
CONTINUOUS
 62
     6
100
AcDbCircle
 10
59.704416
 20
143.520013
 30
0.0
 40
0.2
100
AcDbArc
 50
270.0
 51
359.99823
  0
ARC
  5
38E
100
AcDbEntity
  8
LAY-2
  6
CONTINUOUS
 62
     6
100
AcDbCircle
 10
60.344412
 20
143.520013
 30
0.0
 40
0.2
100
AcDbArc
 50
180.0
 51
270.0
  0
ARC
  5
38F
100
AcDbEntity
  8
LAY-2
  6
CONTINUOUS
 62
     6
100
AcDbCircle
 10
60.344409
 20
142.880011
 30
0.0
 40
0.2
100
AcDbArc
 50
90.0
 51
179.999146
  0
LINE
  5
390
100
AcDbEntity
  8
LAY-2
  6
CONTINUOUS
 62
     6
100
AcDbLine
 10
60.144412
 20
143.610013
 30
0.0
 11
60.144412
 21
143.520013
 31
0.0
  0
LINE
  5
391
100
AcDbEntity
  8
LAY-2
  6
CONTINUOUS
 62
     6
100
AcDbLine
 10
59.61441
 20
143.320013
 30
0.0
 11
59.704416
 21
143.320013
 31
0.0
  0
LINE
  5
392
100
AcDbEntity
  8
LAY-2
  6
CONTINUOUS
 62
     6
100
AcDbLine
 10
59.904416
 20
143.610013
 30
0.0
 11
59.904416
 21
143.520007
 31
0.0
  0
LINE
  5
393
100
AcDbEntity
  8
LAY-2
  6
CONTINUOUS
 62
     6
100
AcDbLine
 10
59.61441
 20
143.080011
 30
0.0
 11
59.70441
 21
143.080011
 31
0.0
  0
LINE
  5
394
100
AcDbEntity
  8
LAY-2
  6
CONTINUOUS
 62
     6
100
AcDbLine
 10
59.61441
 20
143.320013
 30
0.0
 11
59.61441
 21
143.080011
 31
0.0
  0
LINE
  5
395
100
AcDbEntity
  8
LAY-2
  6
CONTINUOUS
 62
     6
100
AcDbLine
 10
60.434421
 20
143.080011
 30
0.0
 11
60.434421
 21
143.320013
 31
0.0
  0
LINE
  5
396
100
AcDbEntity
  8
LAY-2
  6
CONTINUOUS
 62
     6
100
AcDbLine
 10
59.90441
 20
142.790012
 30
0.0
 11
59.90441
 21
142.880011
 31
0.0
  0
LINE
  5
397
100
AcDbEntity
  8
LAY-2
  6
CONTINUOUS
 62
     6
100
AcDbLine
 10
60.144406
 20
142.790012
 30
0.0
 11
60.144409
 21
142.880014
 31
0.0
  0
LINE
  5
398
100
AcDbEntity
  8
LAY-2
  6
CONTINUOUS
 62
     6
100
AcDbLine
 10
59.90441
 20
142.790012
 30
0.0
 11
60.144406
 21
142.790012
 31
0.0
  0
LINE
  5
399
100
AcDbEntity
  8
LAY-2
  6
CONTINUOUS
 62
     6
100
AcDbLine
 10
60.144412
 20
143.610013
 30
0.0
 11
59.904416
 21
143.610013
 31
0.0
  0
LINE
  5
39A
100
AcDbEntity
  8
LAY-2
  6
CONTINUOUS
 62
     6
100
AcDbLine
 10
60.434421
 20
143.080011
 30
0.0
 11
60.344409
 21
143.080011
 31
0.0
  0
LINE
  5
39B
100
AcDbEntity
  8
LAY-2
  6
CONTINUOUS
 62
     6
100
AcDbLine
 10
60.434421
 20
143.320013
 30
0.0
 11
60.344412
 21
143.320013
 31
0.0
  0
LINE
  5
39C
100
AcDbEntity
  8
LAY-2
  6
CONTINUOUS
 62
     6
100
AcDbLine
 10
60.024411
 20
140.28
 30
0.0
 11
60.024411
 21
141.600012
 31
0.0
  0
LINE
  5
39D
100
AcDbEntity
  8
LAY-2
  6
CONTINUOUS
 62
     6
100
AcDbLine
 10
60.024411
 20
142.800012
 30
0.0
 11
60.024411
 21
143.600012
 31
0.0
  0
LINE
  5
39E
100
AcDbEntity
  8
LAY-2
  6
CONTINUOUS
 62
     6
100
AcDbLine
 10
60.024411
 20
144.800012
 30
0.0
 11
60.024411
 21
146.12
 31
0.0
  0
CIRCLE
  5
39F
100
AcDbEntity
  8
LAY-2
  6
CONTINUOUS
 62
     6
100
AcDbCircle
 10
76.024411
 20
143.200012
 30
0.0
 40
0.7
  0
CIRCLE
  5
3A0
100
AcDbEntity
  8
LAY-2
  6
CONTINUOUS
 62
     6
100
AcDbCircle
 10
76.024411
 20
143.2
 30
0.0
 40
0.92
  0
ARC
  5
3A1
100
AcDbEntity
  8
LAY-2
  6
CONTINUOUS
 62
     6
100
AcDbCircle
 10
76.344412
 20
142.880011
 30
0.0
 40
0.2
100
AcDbArc
 50
90.0
 51
180.0
  0
ARC
  5
3A2
100
AcDbEntity
  8
LAY-2
  6
CONTINUOUS
 62
     6
100
AcDbCircle
 10
76.344406
 20
143.520013
 30
0.0
 40
0.2
100
AcDbArc
 50
180.00177
 51
270.0
  0
ARC
  5
3A3
100
AcDbEntity
  8
LAY-2
  6
CONTINUOUS
 62
     6
100
AcDbCircle
 10
75.70441
 20
143.520013
 30
0.0
 40
0.2
100
AcDbArc
 50
270.0
 51
0.0
  0
ARC
  5
3A4
100
AcDbEntity
  8
LAY-2
  6
CONTINUOUS
 62
     6
100
AcDbCircle
 10
75.704413
 20
142.880011
 30
0.0
 40
0.2
100
AcDbArc
 50
0.000854
 51
90.0
  0
LINE
  5
3A5
100
AcDbEntity
  8
LAY-2
  6
CONTINUOUS
 62
     6
100
AcDbLine
 10
75.90441
 20
143.610013
 30
0.0
 11
75.90441
 21
143.520013
 31
0.0
  0
LINE
  5
3A6
100
AcDbEntity
  8
LAY-2
  6
CONTINUOUS
 62
     6
100
AcDbLine
 10
76.434412
 20
143.320013
 30
0.0
 11
76.344406
 21
143.320013
 31
0.0
  0
LINE
  5
3A7
100
AcDbEntity
  8
LAY-2
  6
CONTINUOUS
 62
     6
100
AcDbLine
 10
76.144406
 20
143.610013
 30
0.0
 11
76.144406
 21
143.520007
 31
0.0
  0
LINE
  5
3A8
100
AcDbEntity
  8
LAY-2
  6
CONTINUOUS
 62
     6
100
AcDbLine
 10
76.434412
 20
143.080011
 30
0.0
 11
76.344412
 21
143.080011
 31
0.0
  0
LINE
  5
3A9
100
AcDbEntity
  8
LAY-2
  6
CONTINUOUS
 62
     6
100
AcDbLine
 10
76.434412
 20
143.320013
 30
0.0
 11
76.434412
 21
143.080011
 31
0.0
  0
LINE
  5
3AA
100
AcDbEntity
  8
LAY-2
  6
CONTINUOUS
 62
     6
100
AcDbLine
 10
75.614401
 20
143.080011
 30
0.0
 11
75.614401
 21
143.320013
 31
0.0
  0
LINE
  5
3AB
100
AcDbEntity
  8
LAY-2
  6
CONTINUOUS
 62
     6
100
AcDbLine
 10
76.144412
 20
142.790012
 30
0.0
 11
76.144412
 21
142.880011
 31
0.0
  0
LINE
  5
3AC
100
AcDbEntity
  8
LAY-2
  6
CONTINUOUS
 62
     6
100
AcDbLine
 10
75.904416
 20
142.790012
 30
0.0
 11
75.904413
 21
142.880014
 31
0.0
  0
LINE
  5
3AD
100
AcDbEntity
  8
LAY-2
  6
CONTINUOUS
 62
     6
100
AcDbLine
 10
76.144412
 20
142.790012
 30
0.0
 11
75.904416
 21
142.790012
 31
0.0
  0
LINE
  5
3AE
100
AcDbEntity
  8
LAY-2
  6
CONTINUOUS
 62
     6
100
AcDbLine
 10
75.90441
 20
143.610013
 30
0.0
 11
76.144406
 21
143.610013
 31
0.0
  0
LINE
  5
3AF
100
AcDbEntity
  8
LAY-2
  6
CONTINUOUS
 62
     6
100
AcDbLine
 10
75.614401
 20
143.080011
 30
0.0
 11
75.704413
 21
143.080011
 31
0.0
  0
LINE
  5
3B0
100
AcDbEntity
  8
LAY-2
  6
CONTINUOUS
 62
     6
100
AcDbLine
 10
75.614401
 20
143.320013
 30
0.0
 11
75.70441
 21
143.320013
 31
0.0
  0
LINE
  5
3B1
100
AcDbEntity
  8
LAY-2
  6
CONTINUOUS
 62
     6
100
AcDbLine
 10
76.024411
 20
140.28
 30
0.0
 11
76.024411
 21
141.600012
 31
0.0
  0
LINE
  5
3B2
100
AcDbEntity
  8
LAY-2
  6
CONTINUOUS
 62
     6
100
AcDbLine
 10
76.024411
 20
142.800012
 30
0.0
 11
76.024411
 21
143.600012
 31
0.0
  0
LINE
  5
3B3
100
AcDbEntity
  8
LAY-2
  6
CONTINUOUS
 62
     6
100
AcDbLine
 10
76.024411
 20
144.800012
 30
0.0
 11
76.024411
 21
146.12
 31
0.0
  0
LINE
  5
3B4
100
AcDbEntity
  8
LAY-2
  6
CONTINUOUS
 62
     6
100
AcDbLine
 10
62.944423
 20
143.200012
 30
0.0
 11
61.624411
 21
143.200012
 31
0.0
  0
LINE
  5
3B5
100
AcDbEntity
  8
LAY-2
  6
CONTINUOUS
 62
     6
100
AcDbLine
 10
60.424411
 20
143.200012
 30
0.0
 11
59.624411
 21
143.200012
 31
0.0
  0
LINE
  5
3B6
100
AcDbEntity
  8
LAY-2
  6
CONTINUOUS
 62
     6
100
AcDbLine
 10
58.424411
 20
143.200012
 30
0.0
 11
57.104423
 21
143.200012
 31
0.0
  0
LINE
  5
3B7
100
AcDbEntity
  8
LAY-2
  6
CONTINUOUS
 62
     6
100
AcDbLine
 10
73.104399
 20
143.200012
 30
0.0
 11
74.424411
 21
143.200012
 31
0.0
  0
LINE
  5
3B8
100
AcDbEntity
  8
LAY-2
  6
CONTINUOUS
 62
     6
100
AcDbLine
 10
75.624411
 20
143.200012
 30
0.0
 11
76.424411
 21
143.200012
 31
0.0
  0
LINE
  5
3B9
100
AcDbEntity
  8
LAY-2
  6
CONTINUOUS
 62
     6
100
AcDbLine
 10
77.624411
 20
143.200012
 30
0.0
 11
78.944399
 21
143.200012
 31
0.0
  0
LINE
  5
3BA
100
AcDbEntity
  8
LAY-2
  6
CONTINUOUS
 62
     3
100
AcDbLine
 10
60.024399
 20
221.298578
 30
0.0
 11
60.024399
 21
225.9
 31
0.0
  0
LINE
  5
3BB
100
AcDbEntity
  8
LAY-2
  6
CONTINUOUS
 62
     3
100
AcDbLine
 10
76.024399
 20
221.298535
 30
0.0
 11
76.024399
 21
225.9
 31
0.0
  0
ARC
  5
3BC
100
AcDbEntity
  8
LAY-2
  6
CONTINUOUS
 62
     6
100
AcDbCircle
 10
124.009451
 20
139.700001
 30
0.0
 40
10.8
100
AcDbArc
 50
242.122559
 51
264.636867
  0
LINE
  5
3BD
100
AcDbEntity
  8
LAY-2
  6
CONTINUOUS
 62
     6
100
AcDbLine
 10
125.0
 20
128.900001
 30
0.0
 11
124.199999
 21
128.900002
 31
0.0
  0
LINE
  5
3BE
100
AcDbEntity
  8
LAY-2
  6
CONTINUOUS
 62
     6
100
AcDbLine
 10
133.309451
 20
128.9
 30
0.0
 11
128.2
 21
128.900001
 31
0.0
  0
LINE
  5
3BF
100
AcDbEntity
  8
LAY-2
  6
CONTINUOUS
 62
     6
100
AcDbLine
 10
127.0
 20
128.900001
 30
0.0
 11
126.2
 21
128.900001
 31
0.0
  0
ARC
  5
3C0
100
AcDbEntity
  8
LAY-2
  6
CONTINUOUS
 62
     6
100
AcDbCircle
 10
136.483441
 20
527.499414
 30
0.0
 40
400.0
100
AcDbArc
 50
268.24025
 51
268.354892
  0
ARC
  5
3C1
100
AcDbEntity
  8
LAY-2
  6
CONTINUOUS
 62
     6
100
AcDbCircle
 10
136.483441
 20
527.499414
 30
0.0
 40
400.0
100
AcDbArc
 50
268.526843
 51
268.64147
  0
ARC
  5
3C2
100
AcDbEntity
  8
LAY-2
  6
CONTINUOUS
 62
     6
100
AcDbCircle
 10
136.483441
 20
527.499414
 30
0.0
 40
400.0
100
AcDbArc
 50
268.8134
 51
269.817261
  0
ARC
  5
3C3
100
AcDbEntity
  8
LAY-2
  6
CONTINUOUS
 62
     6
100
AcDbCircle
 10
124.009451
 20
139.700001
 30
0.0
 40
11.5
100
AcDbArc
 50
141.500061
 51
172.505287
  0
ARC
  5
3C4
100
AcDbEntity
  8
LAY-2
  6
CONTINUOUS
 62
     6
100
AcDbCircle
 10
124.009451
 20
139.700001
 30
0.0
 40
11.5
100
AcDbArc
 50
178.505162
 51
182.49191
  0
ARC
  5
3C5
100
AcDbEntity
  8
LAY-2
  6
CONTINUOUS
 62
     6
100
AcDbCircle
 10
124.009451
 20
139.700001
 30
0.0
 40
11.5
100
AcDbArc
 50
188.50097
 51
192.555862
  0
ARC
  5
3C6
100
AcDbEntity
  8
LAY-2
  6
CONTINUOUS
 62
     6
100
AcDbCircle
 10
124.009451
 20
139.700001
 30
0.0
 40
11.5
100
AcDbArc
 50
198.768137
 51
240.827271
  0
ARC
  5
3C7
100
AcDbEntity
  8
LAY-2
  6
CONTINUOUS
 62
     6
100
AcDbCircle
 10
124.009451
 20
139.700001
 30
0.0
 40
12.0
100
AcDbArc
 50
138.590332
 51
172.819248
  0
ARC
  5
3C8
100
AcDbEntity
  8
LAY-2
  6
CONTINUOUS
 62
     6
100
AcDbCircle
 10
124.009451
 20
139.700001
 30
0.0
 40
12.0
100
AcDbArc
 50
178.56746
 51
182.388019
  0
ARC
  5
3C9
100
AcDbEntity
  8
LAY-2
  6
CONTINUOUS
 62
     6
100
AcDbCircle
 10
124.009451
 20
139.700001
 30
0.0
 40
12.0
100
AcDbArc
 50
188.144304
 51
192.024703
  0
ARC
  5
3CA
100
AcDbEntity
  8
LAY-2
  6
CONTINUOUS
 62
     6
100
AcDbCircle
 10
124.009451
 20
139.700001
 30
0.0
 40
12.0
100
AcDbArc
 50
197.958822
 51
265.174523
  0
ARC
  5
3CB
100
AcDbEntity
  8
LAY-2
  6
CONTINUOUS
 62
     6
100
AcDbCircle
 10
162.973712
 20
140.261643
 30
0.0
 40
30.0
100
AcDbArc
 50
153.078003
 51
153.895574
  0
ARC
  5
3CC
100
AcDbEntity
  8
LAY-2
  6
CONTINUOUS
 62
     6
100
AcDbCircle
 10
162.973712
 20
140.261643
 30
0.0
 40
30.0
100
AcDbArc
 50
155.805787
 51
156.952799
  0
ARC
  5
3CD
100
AcDbEntity
  8
LAY-2
  6
CONTINUOUS
 62
     6
100
AcDbCircle
 10
162.973712
 20
140.261643
 30
0.0
 40
30.0
100
AcDbArc
 50
158.867445
 51
159.186584
  0
LINE
  5
3CE
100
AcDbEntity
  8
LAY-2
  6
CONTINUOUS
 62
     6
100
AcDbLine
 10
136.032092
 20
146.930088
 30
0.0
 11
135.300167
 21
149.144331
 31
0.0
  0
ARC
  5
3CF
100
AcDbEntity
  8
LAY-2
  6
CONTINUOUS
 62
     6
100
AcDbCircle
 10
137.651605
 20
153.120526
 30
0.0
 40
1.6
100
AcDbArc
 50
33.519043
 51
34.104406
  0
ARC
  5
3D0
100
AcDbEntity
  8
LAY-2
  6
CONTINUOUS
 62
     6
100
AcDbCircle
 10
137.651605
 20
153.120526
 30
0.0
 40
1.6
100
AcDbArc
 50
72.954997
 51
153.078003
  0
LINE
  5
3D1
100
AcDbEntity
  8
LAY-2
  6
CONTINUOUS
 62
     6
100
AcDbLine
 10
138.985529
 20
154.004069
 30
0.0
 11
139.307833
 21
153.517476
 31
0.0
  0
LINE
  5
3D2
100
AcDbEntity
  8
LAY-2
  6
CONTINUOUS
 62
     6
100
AcDbLine
 10
139.211493
 20
151.534507
 30
0.0
 11
139.699237
 21
152.580477
 31
0.0
  0
LINE
  5
3D3
100
AcDbEntity
  8
LAY-2
  6
CONTINUOUS
 62
     6
100
AcDbLine
 10
144.53421
 20
125.7875
 30
0.0
 11
144.231656
 21
125.637173
 31
0.0
  0
LINE
  5
3D4
100
AcDbEntity
  8
LAY-2
  6
CONTINUOUS
 62
     6
100
AcDbLine
 10
143.118539
 20
125.084108
 30
0.0
 11
142.37646
 21
124.715398
 31
0.0
  0
LINE
  5
3D5
100
AcDbEntity
  8
LAY-2
  6
CONTINUOUS
 62
     6
100
AcDbLine
 10
141.263342
 20
124.162332
 30
0.0
 11
141.010208
 21
124.03656
 31
0.0
  0
ARC
  5
3D6
100
AcDbEntity
  8
LAY-2
  6
CONTINUOUS
 62
     6
100
AcDbCircle
 10
146.349768
 20
113.289975
 30
0.0
 40
12.0
100
AcDbArc
 50
116.42099
 51
119.012881
  0
ARC
  5
3D7
100
AcDbEntity
  8
LAY-2
  6
CONTINUOUS
 62
     6
100
AcDbCircle
 10
146.349768
 20
113.289975
 30
0.0
 40
12.0
100
AcDbArc
 50
124.826442
 51
128.660223
  0
ARC
  5
3D8
100
AcDbEntity
  8
LAY-2
  6
CONTINUOUS
 62
     6
100
AcDbCircle
 10
146.349768
 20
113.289975
 30
0.0
 40
12.0
100
AcDbArc
 50
134.392191
 51
138.225972
  0
ARC
  5
3D9
100
AcDbEntity
  8
LAY-2
  6
CONTINUOUS
 62
     6
100
AcDbCircle
 10
146.349768
 20
113.289975
 30
0.0
 40
12.0
100
AcDbArc
 50
144.039532
 51
147.985456
  0
ARC
  5
3DA
100
AcDbEntity
  8
LAY-2
  6
CONTINUOUS
 62
     6
100
AcDbCircle
 10
146.349768
 20
113.289975
 30
0.0
 40
12.0
100
AcDbArc
 50
154.066517
 51
159.952087
  0
LINE
  5
3DB
100
AcDbEntity
  8
LAY-2
  6
CONTINUOUS
 62
     6
100
AcDbLine
 10
144.781006
 20
125.016818
 30
0.0
 11
145.606616
 21
125.427032
 31
0.0
  0
LINE
  5
3DC
100
AcDbEntity
  8
LAY-2
  6
CONTINUOUS
 62
     6
100
AcDbLine
 10
141.172949
 20
123.224115
 30
0.0
 11
141.812691
 21
123.541978
 31
0.0
  0
LINE
  5
3DD
100
AcDbEntity
  8
LAY-2
  6
CONTINUOUS
 62
     6
100
AcDbLine
 10
142.925809
 20
124.095043
 30
0.0
 11
143.667888
 21
124.463753
 31
0.0
  0
ARC
  5
3DE
100
AcDbEntity
  8
LAY-2
  6
CONTINUOUS
 62
     6
100
AcDbCircle
 10
146.512506
 20
112.47753
 30
0.0
 40
12.0
100
AcDbArc
 50
116.42099
 51
116.965901
  0
ARC
  5
3DF
100
AcDbEntity
  8
LAY-2
  6
CONTINUOUS
 62
     6
100
AcDbCircle
 10
146.512506
 20
112.47753
 30
0.0
 40
12.0
100
AcDbArc
 50
122.818205
 51
126.665581
  0
ARC
  5
3E0
100
AcDbEntity
  8
LAY-2
  6
CONTINUOUS
 62
     6
100
AcDbCircle
 10
146.512506
 20
112.47753
 30
0.0
 40
12.0
100
AcDbArc
 50
132.401021
 51
136.225974
  0
ARC
  5
3E1
100
AcDbEntity
  8
LAY-2
  6
CONTINUOUS
 62
     6
100
AcDbCircle
 10
146.512506
 20
112.47753
 30
0.0
 40
12.0
100
AcDbArc
 50
142.008664
 51
145.920957
  0
ARC
  5
3E2
100
AcDbEntity
  8
LAY-2
  6
CONTINUOUS
 62
     6
100
AcDbCircle
 10
146.512506
 20
112.47753
 30
0.0
 40
12.0
100
AcDbArc
 50
151.927985
 51
158.547363
  0
LINE
  5
3E3
100
AcDbEntity
  8
LAY-2
  6
CONTINUOUS
 62
     6
100
AcDbLine
 10
68.024391
 20
220.598576
 30
0.0
 11
68.324391
 21
219.874315
 31
0.0
  0
LINE
  5
3E4
100
AcDbEntity
  8
LAY-2
  6
CONTINUOUS
 62
     6
100
AcDbLine
 10
67.724391
 20
219.874272
 30
0.0
 11
68.024391
 21
220.598533
 31
0.0
  0
LINE
  5
3E5
100
AcDbEntity
  8
LAY-2
  6
CONTINUOUS
 62
     6
100
AcDbLine
 10
67.724391
 20
215.198588
 30
0.0
 11
67.724391
 21
219.874272
 31
0.0
  0
LINE
  5
3E6
100
AcDbEntity
  8
LAY-2
  6
CONTINUOUS
 62
     6
100
AcDbLine
 10
68.324391
 20
219.874309
 30
0.0
 11
68.324391
 21
215.198588
 31
0.0
  0
LINE
  5
3E7
100
AcDbEntity
  8
LAY-2
  6
CONTINUOUS
 62
     7
100
AcDbLine
 10
55.224371
 20
215.198621
 30
0.0
 11
55.125911
 21
211.438602
 31
0.0
  0
LINE
  5
3E8
100
AcDbEntity
  8
LAY-2
  6
CONTINUOUS
 62
     2
100
AcDbLine
 10
55.125911
 20
211.438602
 30
0.0
 11
55.049286
 21
208.512448
 31
0.0
  0
LINE
  5
3E9
100
AcDbEntity
  8
LAY-2
  6
CONTINUOUS
 62
     7
100
AcDbLine
 10
80.824411
 20
215.198615
 30
0.0
 11
80.92287
 21
211.438602
 31
0.0
  0
LINE
  5
3EA
100
AcDbEntity
  8
LAY-2
  6
CONTINUOUS
 62
     2
100
AcDbLine
 10
80.92287
 20
211.438602
 30
0.0
 11
80.999493
 21
208.512448
 31
0.0
  0
CIRCLE
  5
3EB
100
AcDbEntity
  8
LAY-2
  6
EXLTYPE4
 62
     6
100
AcDbCircle
 10
148.509448
 20
138.00392
 30
0.0
 40
3.8
  0
TEXT
  5
3EC
100
AcDbEntity
  8
LAY-3
  6
CONTINUOUS
 62
     2
100
AcDbText
 10
63.924399
 20
224.25
 30
0.0
 40
4.0
  1
８０
 41
0.861
  7
EXCADSTD
 72
     5
 11
71.440519
 21
224.25
 31
0.0
100
AcDbText
  0
LINE
  5
3ED
100
AcDbEntity
  8
LAY-3
  6
CONTINUOUS
 62
     3
100
AcDbLine
 10
60.024399
 20
223.9
 30
0.0
 11
76.024399
 21
223.9
 31
0.0
  0
LINE
  5
3EE
100
AcDbEntity
  8
LAY-3
  6
CONTINUOUS
 62
     3
100
AcDbLine
 10
63.524399
 20
224.483333
 30
0.0
 11
60.024399
 21
223.9
 31
0.0
  0
LINE
  5
3EF
100
AcDbEntity
  8
LAY-3
  6
CONTINUOUS
 62
     3
100
AcDbLine
 10
60.024399
 20
223.9
 30
0.0
 11
63.524399
 21
223.316667
 31
0.0
  0
LINE
  5
3F0
100
AcDbEntity
  8
LAY-3
  6
CONTINUOUS
 62
     3
100
AcDbLine
 10
72.524399
 20
223.316667
 30
0.0
 11
76.024399
 21
223.9
 31
0.0
  0
LINE
  5
3F1
100
AcDbEntity
  8
LAY-3
  6
CONTINUOUS
 62
     3
100
AcDbLine
 10
76.024399
 20
223.9
 30
0.0
 11
72.524399
 21
224.483333
 31
0.0
  0
TEXT
  5
3F2
100
AcDbEntity
  8
LAY-3
  6
CONTINUOUS
 62
     2
100
AcDbText
 10
62.074391
 20
232.25
 30
0.0
 40
4.0
  1
１２８
 41
0.833
  7
EXCADSTD
 72
     5
 11
73.974391
 21
232.25
 31
0.0
100
AcDbText
  0
LINE
  5
3F3
100
AcDbEntity
  8
LAY-3
  6
CONTINUOUS
 62
     3
100
AcDbLine
 10
55.224371
 20
231.9
 30
0.0
 11
80.824411
 21
231.9
 31
0.0
  0
LINE
  5
3F4
100
AcDbEntity
  8
LAY-3
  6
CONTINUOUS
 62
     3
100
AcDbLine
 10
58.724371
 20
232.483333
 30
0.0
 11
55.224371
 21
231.9
 31
0.0
  0
LINE
  5
3F5
100
AcDbEntity
  8
LAY-3
  6
CONTINUOUS
 62
     3
100
AcDbLine
 10
55.224371
 20
231.9
 30
0.0
 11
58.724371
 21
231.316667
 31
0.0
  0
LINE
  5
3F6
100
AcDbEntity
  8
LAY-3
  6
CONTINUOUS
 62
     3
100
AcDbLine
 10
77.324411
 20
231.316667
 30
0.0
 11
80.824411
 21
231.9
 31
0.0
  0
LINE
  5
3F7
100
AcDbEntity
  8
LAY-3
  6
CONTINUOUS
 62
     3
100
AcDbLine
 10
80.824411
 20
231.9
 30
0.0
 11
77.324411
 21
232.483333
 31
0.0
  0
TEXT
  5
3F8
100
AcDbEntity
  8
LAY-3
  6
CONTINUOUS
 62
     2
100
AcDbText
 10
62.074391
 20
179.748602
 30
0.0
 40
4.0
  1
２０３
 41
0.833
  7
EXCADSTD
 72
     5
 11
73.974391
 21
179.748602
 31
0.0
100
AcDbText
  0
LINE
  5
3F9
100
AcDbEntity
  8
LAY-3
  6
CONTINUOUS
 62
     3
100
AcDbLine
 10
47.774408
 20
179.398602
 30
0.0
 11
88.274374
 21
179.398602
 31
0.0
  0
LINE
  5
3FA
100
AcDbEntity
  8
LAY-3
  6
CONTINUOUS
 62
     3
100
AcDbLine
 10
51.274408
 20
179.981936
 30
0.0
 11
47.774408
 21
179.398602
 31
0.0
  0
LINE
  5
3FB
100
AcDbEntity
  8
LAY-3
  6
CONTINUOUS
 62
     3
100
AcDbLine
 10
47.774408
 20
179.398602
 30
0.0
 11
51.274408
 21
178.815269
 31
0.0
  0
LINE
  5
3FC
100
AcDbEntity
  8
LAY-3
  6
CONTINUOUS
 62
     3
100
AcDbLine
 10
84.774374
 20
178.815269
 30
0.0
 11
88.274374
 21
179.398602
 31
0.0
  0
LINE
  5
3FD
100
AcDbEntity
  8
LAY-3
  6
CONTINUOUS
 62
     3
100
AcDbLine
 10
88.274374
 20
179.398602
 30
0.0
 11
84.774374
 21
179.981936
 31
0.0
  0
TEXT
  5
3FE
100
AcDbEntity
  8
LAY-3
  6
CONTINUOUS
 62
     2
100
AcDbText
 10
95.924347
 20
119.25
 30
0.0
 40
4.0
  1
２６５
 50
90.0
 41
0.833
  7
EXCADSTD
 72
     5
 11
95.924347
 21
131.15
 31
0.0
100
AcDbText
  0
LINE
  5
3FF
100
AcDbEntity
  8
LAY-3
  6
CONTINUOUS
 62
     3
100
AcDbLine
 10
96.274347
 20
151.7
 30
0.0
 11
96.274347
 21
98.7
 31
0.0
  0
LINE
  5
400
100
AcDbEntity
  8
LAY-3
  6
CONTINUOUS
 62
     3
100
AcDbLine
 10
96.85768
 20
148.2
 30
0.0
 11
96.274347
 21
151.7
 31
0.0
  0
LINE
  5
401
100
AcDbEntity
  8
LAY-3
  6
CONTINUOUS
 62
     3
100
AcDbLine
 10
96.274347
 20
151.7
 30
0.0
 11
95.691013
 21
148.2
 31
0.0
  0
LINE
  5
402
100
AcDbEntity
  8
LAY-3
  6
CONTINUOUS
 62
     3
100
AcDbLine
 10
95.691013
 20
102.2
 30
0.0
 11
96.274347
 21
98.7
 31
0.0
  0
LINE
  5
403
100
AcDbEntity
  8
LAY-3
  6
CONTINUOUS
 62
     3
100
AcDbLine
 10
96.274347
 20
98.7
 30
0.0
 11
96.85768
 21
102.2
 31
0.0
  0
TEXT
  5
404
100
AcDbEntity
  8
LAY-3
  6
CONTINUOUS
 62
     2
100
AcDbText
 10
103.924347
 20
120.5
 30
0.0
 40
4.0
  1
２７８
 50
90.0
 41
0.833
  7
EXCADSTD
 72
     5
 11
103.924347
 21
132.4
 31
0.0
100
AcDbText
  0
LINE
  5
405
100
AcDbEntity
  8
LAY-3
  6
CONTINUOUS
 62
     3
100
AcDbLine
 10
104.274347
 20
98.7
 30
0.0
 11
104.274347
 21
154.2
 31
0.0
  0
LINE
  5
406
100
AcDbEntity
  8
LAY-3
  6
CONTINUOUS
 62
     3
100
AcDbLine
 10
103.691013
 20
102.2
 30
0.0
 11
104.274347
 21
98.7
 31
0.0
  0
LINE
  5
407
100
AcDbEntity
  8
LAY-3
  6
CONTINUOUS
 62
     3
100
AcDbLine
 10
104.274347
 20
98.7
 30
0.0
 11
104.85768
 21
102.2
 31
0.0
  0
LINE
  5
408
100
AcDbEntity
  8
LAY-3
  6
CONTINUOUS
 62
     3
100
AcDbLine
 10
104.85768
 20
150.7
 30
0.0
 11
104.274347
 21
154.2
 31
0.0
  0
LINE
  5
409
100
AcDbEntity
  8
LAY-3
  6
CONTINUOUS
 62
     3
100
AcDbLine
 10
104.274347
 20
154.2
 30
0.0
 11
103.691013
 21
150.7
 31
0.0
  0
TEXT
  5
40A
100
AcDbEntity
  8
LAY-3
  6
CONTINUOUS
 62
     2
100
AcDbText
 10
170.559448
 20
119.25
 30
0.0
 40
4.0
  1
１８０
 50
90.0
 41
0.833
  7
EXCADSTD
 72
     5
 11
170.559448
 21
131.15
 31
0.0
100
AcDbText
  0
LINE
  5
40B
100
AcDbEntity
  8
LAY-3
  6
CONTINUOUS
 62
     3
100
AcDbLine
 10
170.909448
 20
143.2
 30
0.0
 11
170.909448
 21
107.2
 31
0.0
  0
LINE
  5
40C
100
AcDbEntity
  8
LAY-3
  6
CONTINUOUS
 62
     3
100
AcDbLine
 10
171.492782
 20
139.7
 30
0.0
 11
170.909448
 21
143.2
 31
0.0
  0
LINE
  5
40D
100
AcDbEntity
  8
LAY-3
  6
CONTINUOUS
 62
     3
100
AcDbLine
 10
170.909448
 20
143.2
 30
0.0
 11
170.326115
 21
139.7
 31
0.0
  0
LINE
  5
40E
100
AcDbEntity
  8
LAY-3
  6
CONTINUOUS
 62
     3
100
AcDbLine
 10
170.326115
 20
110.7
 30
0.0
 11
170.909448
 21
107.2
 31
0.0
  0
LINE
  5
40F
100
AcDbEntity
  8
LAY-3
  6
CONTINUOUS
 62
     3
100
AcDbLine
 10
170.909448
 20
107.2
 30
0.0
 11
171.492782
 21
110.7
 31
0.0
  0
TEXT
  5
410
100
AcDbEntity
  8
LAY-3
  6
CONTINUOUS
 62
     2
100
AcDbText
 10
178.559448
 20
119.25
 30
0.0
 40
4.0
  1
２３３
 50
90.0
 41
0.833
  7
EXCADSTD
 72
     5
 11
178.559448
 21
131.15
 31
0.0
100
AcDbText
  0
LINE
  5
411
100
AcDbEntity
  8
LAY-3
  6
CONTINUOUS
 62
     3
100
AcDbLine
 10
178.909448
 20
101.924426
 30
0.0
 11
178.909448
 21
148.475574
 31
0.0
  0
LINE
  5
412
100
AcDbEntity
  8
LAY-3
  6
CONTINUOUS
 62
     3
100
AcDbLine
 10
178.326115
 20
105.424426
 30
0.0
 11
178.909448
 21
101.924426
 31
0.0
  0
LINE
  5
413
100
AcDbEntity
  8
LAY-3
  6
CONTINUOUS
 62
     3
100
AcDbLine
 10
178.909448
 20
101.924426
 30
0.0
 11
179.492782
 21
105.424426
 31
0.0
  0
LINE
  5
414
100
AcDbEntity
  8
LAY-3
  6
CONTINUOUS
 62
     3
100
AcDbLine
 10
179.492782
 20
144.975574
 30
0.0
 11
178.909448
 21
148.475574
 31
0.0
  0
LINE
  5
415
100
AcDbEntity
  8
LAY-3
  6
CONTINUOUS
 62
     3
100
AcDbLine
 10
178.909448
 20
148.475574
 30
0.0
 11
178.326115
 21
144.975574
 31
0.0
  0
TEXT
  5
416
100
AcDbEntity
  8
LAY-3
  6
CONTINUOUS
 62
     2
100
AcDbText
 10
101.924408
 20
195.252341
 30
0.0
 40
4.0
  1
１４０
 50
90.0
 41
0.833
  7
EXCADSTD
 72
     5
 11
101.924408
 21
207.152341
 31
0.0
100
AcDbText
  0
LINE
  5
417
100
AcDbEntity
  8
LAY-3
  6
CONTINUOUS
 62
     3
100
AcDbLine
 10
102.274408
 20
215.198615
 30
0.0
 11
102.274408
 21
187.206067
 31
0.0
  0
LINE
  5
418
100
AcDbEntity
  8
LAY-3
  6
CONTINUOUS
 62
     3
100
AcDbLine
 10
102.857741
 20
211.698615
 30
0.0
 11
102.274408
 21
215.198615
 31
0.0
  0
LINE
  5
419
100
AcDbEntity
  8
LAY-3
  6
CONTINUOUS
 62
     3
100
AcDbLine
 10
102.274408
 20
215.198615
 30
0.0
 11
101.691075
 21
211.698615
 31
0.0
  0
LINE
  5
41A
100
AcDbEntity
  8
LAY-3
  6
CONTINUOUS
 62
     3
100
AcDbLine
 10
101.691075
 20
190.706067
 30
0.0
 11
102.274408
 21
187.206067
 31
0.0
  0
LINE
  5
41B
100
AcDbEntity
  8
LAY-3
  6
CONTINUOUS
 62
     3
100
AcDbLine
 10
102.274408
 20
187.206067
 30
0.0
 11
102.857741
 21
190.706067
 31
0.0
  0
TEXT
  5
41C
100
AcDbEntity
  8
LAY-3
  6
CONTINUOUS
 62
     2
100
AcDbText
 10
93.924408
 20
203.298615
 30
0.0
 40
4.0
  1
７８
 50
90.0
 41
0.861
  7
EXCADSTD
 72
     5
 11
93.924408
 21
210.814735
 31
0.0
100
AcDbText
  0
LINE
  5
41D
100
AcDbEntity
  8
LAY-3
  6
CONTINUOUS
 62
     3
100
AcDbLine
 10
94.274408
 20
199.598615
 30
0.0
 11
94.274408
 21
215.198615
 31
0.0
  0
LINE
  5
41E
100
AcDbEntity
  8
LAY-3
  6
CONTINUOUS
 62
     3
100
AcDbLine
 10
93.691075
 20
203.098615
 30
0.0
 11
94.274408
 21
199.598615
 31
0.0
  0
LINE
  5
41F
100
AcDbEntity
  8
LAY-3
  6
CONTINUOUS
 62
     3
100
AcDbLine
 10
94.274408
 20
199.598615
 30
0.0
 11
94.857741
 21
203.098615
 31
0.0
  0
LINE
  5
420
100
AcDbEntity
  8
LAY-3
  6
CONTINUOUS
 62
     3
100
AcDbLine
 10
94.857741
 20
211.698615
 30
0.0
 11
94.274408
 21
215.198615
 31
0.0
  0
LINE
  5
421
100
AcDbEntity
  8
LAY-3
  6
CONTINUOUS
 62
     3
100
AcDbLine
 10
94.274408
 20
215.198615
 30
0.0
 11
93.691075
 21
211.698615
 31
0.0
  0
LINE
  5
422
100
AcDbEntity
  8
LAY-3
  6
CONTINUOUS
 62
     3
100
AcDbLine
 10
55.224371
 20
215.898621
 30
0.0
 11
55.224371
 21
233.9
 31
0.0
  0
LINE
  5
423
100
AcDbEntity
  8
LAY-3
  6
CONTINUOUS
 62
     3
100
AcDbLine
 10
80.824411
 20
215.898615
 30
0.0
 11
80.824411
 21
233.9
 31
0.0
  0
LINE
  5
424
100
AcDbEntity
  8
LAY-3
  6
EXLTYPE3
 62
     6
100
AcDbLine
 10
88.274408
 20
199.598602
 30
0.0
 11
45.774408
 21
199.598602
 31
0.0
  0
LINE
  5
425
100
AcDbEntity
  8
LAY-3
  6
CONTINUOUS
 62
     3
100
AcDbLine
 10
47.774408
 20
196.2
 30
0.0
 11
47.774408
 21
177.398602
 31
0.0
  0
LINE
  5
426
100
AcDbEntity
  8
LAY-3
  6
EXLTYPE3
 62
     6
100
AcDbLine
 10
68.024391
 20
221.6
 30
0.0
 11
68.024391
 21
185.398602
 31
0.0
  0
LINE
  5
427
100
AcDbEntity
  8
LAY-3
  6
CONTINUOUS
 62
     3
100
AcDbLine
 10
88.274374
 20
196.2
 30
0.0
 11
88.274374
 21
177.398602
 31
0.0
  0
LINE
  5
428
100
AcDbEntity
  8
LAY-3
  6
CONTINUOUS
 62
     3
100
AcDbLine
 10
80.824411
 20
154.2
 30
0.0
 11
106.274347
 21
154.2
 31
0.0
  0
LINE
  5
429
100
AcDbEntity
  8
LAY-3
  6
CONTINUOUS
 62
     3
100
AcDbLine
 10
83.474408
 20
98.7
 30
0.0
 11
106.274347
 21
98.7
 31
0.0
  0
LINE
  5
42A
100
AcDbEntity
  8
LAY-3
  6
CONTINUOUS
 62
     3
100
AcDbLine
 10
83.474408
 20
151.7
 30
0.0
 11
98.274347
 21
151.7
 31
0.0
  0
LINE
  5
42B
100
AcDbEntity
  8
LAY-3
  6
EXLTYPE3
 62
     6
100
AcDbLine
 10
68.024391
 20
156.2
 30
0.0
 11
68.024391
 21
97.349951
 31
0.0
  0
LINE
  5
42C
100
AcDbEntity
  8
LAY-3
  6
CONTINUOUS
 62
     3
100
AcDbLine
 10
83.174379
 20
187.206067
 30
0.0
 11
104.274408
 21
187.206067
 31
0.0
  0
LINE
  5
42D
100
AcDbEntity
  8
LAY-3
  6
EXLTYPE3
 62
     6
100
AcDbLine
 10
145.609448
 20
96.7
 30
0.0
 11
145.609448
 21
151.7
 31
0.0
  0
LINE
  5
42E
100
AcDbEntity
  8
LAY-3
  6
EXLTYPE3
 62
     6
100
AcDbLine
 10
163.209448
 20
125.2
 30
0.0
 11
131.216901
 21
125.2
 31
0.0
  0
LINE
  5
42F
100
AcDbEntity
  8
LAY-3
  6
CONTINUOUS
 62
     3
100
AcDbLine
 10
81.524411
 20
215.198615
 30
0.0
 11
104.274408
 21
215.198615
 31
0.0
  0
LINE
  5
430
100
AcDbEntity
  8
LAY-3
  6
CONTINUOUS
 62
     3
100
AcDbLine
 10
161.909448
 20
148.475574
 30
0.0
 11
180.909448
 21
148.475574
 31
0.0
  0
LINE
  5
431
100
AcDbEntity
  8
LAY-3
  6
CONTINUOUS
 62
     3
100
AcDbLine
 10
167.309436
 20
143.2
 30
0.0
 11
172.909448
 21
143.2
 31
0.0
  0
LINE
  5
432
100
AcDbEntity
  8
LAY-3
  6
CONTINUOUS
 62
     3
100
AcDbLine
 10
167.309436
 20
107.2
 30
0.0
 11
172.909448
 21
107.2
 31
0.0
  0
LINE
  5
433
100
AcDbEntity
  8
LAY-3
  6
CONTINUOUS
 62
     3
100
AcDbLine
 10
161.909448
 20
101.924426
 30
0.0
 11
180.909448
 21
101.924426
 31
0.0
  0
LINE
  5
434
100
AcDbEntity
  8
LAY-3
  6
CONTINUOUS
 62
     3
100
AcDbLine
 10
88.274408
 20
199.598615
 30
0.0
 11
96.274408
 21
199.598615
 31
0.0
  0
LINE
  5
435
100
AcDbEntity
  8
LAY-3
  6
CONTINUOUS
 62
     6
100
AcDbLine
 10
171.9
 20
156.5
 30
0.0
 11
186.4
 21
156.5
 31
0.0
  0
TEXT
  5
436
100
AcDbEntity
  8
LAY-3
  6
CONTINUOUS
 62
     2
100
AcDbText
 10
171.9
 20
156.85
 30
0.0
 40
4.0
  1
４×３０
 41
0.819
  7
EXCADSTD
 72
     5
 11
187.5
 21
156.85
 31
0.0
100
AcDbText
  0
LINE
  5
437
100
AcDbEntity
  8
LAY-3
  6
EXLTYPE3
 62
     6
100
AcDbLine
 10
45.774396
 20
125.2
 30
0.0
 11
90.274347
 21
125.2
 31
0.0
  0
ENDSEC
  0
SECTION
  2
OBJECTS
  0
DICTIONARY
  5
19
100
AcDbDictionary
  3
ACAD_GROUP
350
1A
  3
ACAD_MLINESTYLE
350
1B
  0
DICTIONARY
  5
1A
102
{ACAD_REACTORS
330
19
102
}
100
AcDbDictionary
  0
DICTIONARY
  5
1B
102
{ACAD_REACTORS
330
19
102
}
100
AcDbDictionary
  3
STANDARD
350
1C
  0
MLINESTYLE
  5
1C
102
{ACAD_REACTORS
330
1B
102
}
100
AcDbMlineStyle
  2
Standard
 70
     0
  3

 62
     0
 51
90.0
 52
90.0
 71
     2
 49
0.5
 62
   256
  6
ByLayer
 49
-0.5
 62
   256
  6
ByLayer
  0
ENDSEC
  0
EOF
