  0
SECTION
  2
HEADER
  9
$ACADVER
  1
AC1014
  9
$ACADMAINTVER
 70
     0
  9
$DWGCODEPAGE
  3
ANSI_932
  9
$INSBASE
 10
0.0
 20
0.0
 30
0.0
  9
$EXTMIN
 10
0.7
 20
8.5
 30
0.0
  9
$EXTMAX
 10
200.0
 20
288.5
 30
0.0
  9
$LIMMIN
 10
0.0
 20
0.0
  9
$LIMMAX
 10
210.0
 20
297.0
  9
$ORTHOMODE
 70
     0
  9
$REGENMODE
 70
     1
  9
$FILLMODE
 70
     1
  9
$QTEXTMODE
 70
     0
  9
$MIRRTEXT
 70
     1
  9
$DRAGMODE
 70
     2
  9
$LTSCALE
 40
1.0
  9
$OSMODE
 70
     0
  9
$ATTMODE
 70
     1
  9
$TEXTSIZE
 40
0.2
  9
$TRACEWID
 40
0.05
  9
$TEXTSTYLE
  7
STANDARD
  9
$CLAYER
  8
1
  9
$CELTYPE
  6
CONTINUOUS
  9
$CECOLOR
 62
   256
  9
$CELTSCALE
 40
1.0
  9
$DELOBJ
 70
     1
  9
$DISPSILH
 70
     0
  9
$DIMSCALE
 40
1.0
  9
$DIMASZ
 40
0.18
  9
$DIMEXO
 40
0.0625
  9
$DIMDLI
 40
0.38
  9
$DIMRND
 40
0.0
  9
$DIMDLE
 40
0.0
  9
$DIMEXE
 40
0.18
  9
$DIMTP
 40
0.0
  9
$DIMTM
 40
0.0
  9
$DIMTXT
 40
0.18
  9
$DIMCEN
 40
0.09
  9
$DIMTSZ
 40
0.0
  9
$DIMTOL
 70
     0
  9
$DIMLIM
 70
     0
  9
$DIMTIH
 70
     1
  9
$DIMTOH
 70
     1
  9
$DIMSE1
 70
     0
  9
$DIMSE2
 70
     0
  9
$DIMTAD
 70
     0
  9
$DIMZIN
 70
     0
  9
$DIMBLK
  1

  9
$DIMASO
 70
     1
  9
$DIMSHO
 70
     1
  9
$DIMPOST
  1

  9
$DIMAPOST
  1

  9
$DIMALT
 70
     0
  9
$DIMALTD
 70
     2
  9
$DIMALTF
 40
25.4
  9
$DIMLFAC
 40
1.0
  9
$DIMTOFL
 70
     0
  9
$DIMTVP
 40
0.0
  9
$DIMTIX
 70
     0
  9
$DIMSOXD
 70
     0
  9
$DIMSAH
 70
     0
  9
$DIMBLK1
  1

  9
$DIMBLK2
  1

  9
$DIMSTYLE
  2
STANDARD
  9
$DIMCLRD
 70
     0
  9
$DIMCLRE
 70
     0
  9
$DIMCLRT
 70
     0
  9
$DIMTFAC
 40
1.0
  9
$DIMGAP
 40
0.09
  9
$DIMJUST
 70
     0
  9
$DIMSD1
 70
     0
  9
$DIMSD2
 70
     0
  9
$DIMTOLJ
 70
     1
  9
$DIMTZIN
 70
     0
  9
$DIMALTZ
 70
     0
  9
$DIMALTTZ
 70
     0
  9
$DIMFIT
 70
     3
  9
$DIMUPT
 70
     0
  9
$DIMUNIT
 70
     2
  9
$DIMDEC
 70
     4
  9
$DIMTDEC
 70
     4
  9
$DIMALTU
 70
     2
  9
$DIMALTTD
 70
     2
  9
$DIMTXSTY
  7
STANDARD
  9
$DIMAUNIT
 70
     0
  9
$LUNITS
 70
     2
  9
$LUPREC
 70
     4
  9
$SKETCHINC
 40
0.1
  9
$FILLETRAD
 40
0.0
  9
$AUNITS
 70
     0
  9
$AUPREC
 70
     0
  9
$MENU
  1
acad
  9
$ELEVATION
 40
0.0
  9
$PELEVATION
 40
0.0
  9
$THICKNESS
 40
0.0
  9
$LIMCHECK
 70
     0
  9
$BLIPMODE
 70
     1
  9
$CHAMFERA
 40
0.0
  9
$CHAMFERB
 40
0.0
  9
$CHAMFERC
 40
0.0
  9
$CHAMFERD
 40
0.0
  9
$SKPOLY
 70
     0
  9
$TDCREATE
 40
2454515.094559826
  9
$TDUPDATE
 40
2454515.094559826
  9
$TDINDWG
 40
0.0000000000
  9
$TDUSRTIMER
 40
0.0000000000
  9
$USRTIMER
 70
     1
  9
$ANGBASE
 50
0.0
  9
$ANGDIR
 70
     0
  9
$PDMODE
 70
     0
  9
$PDSIZE
 40
0.0
  9
$PLINEWID
 40
0.0
  9
$COORDS
 70
     1
  9
$SPLFRAME
 70
     0
  9
$SPLINETYPE
 70
     6
  9
$SPLINESEGS
 70
     8
  9
$ATTDIA
 70
     0
  9
$ATTREQ
 70
     1
  9
$HANDLING
 70
     1
  9
$HANDSEED
  5
5EC
  9
$SURFTAB1
 70
     6
  9
$SURFTAB2
 70
     6
  9
$SURFTYPE
 70
     6
  9
$SURFU
 70
     6
  9
$SURFV
 70
     6
  9
$UCSNAME
  2

  9
$UCSORG
 10
0.0
 20
0.0
 30
0.0
  9
$UCSXDIR
 10
1.0
 20
0.0
 30
0.0
  9
$UCSYDIR
 10
0.0
 20
1.0
 30
0.0
  9
$PUCSNAME
  2

  9
$PUCSORG
 10
0.0
 20
0.0
 30
0.0
  9
$PUCSXDIR
 10
1.0
 20
0.0
 30
0.0
  9
$PUCSYDIR
 10
0.0
 20
1.0
 30
0.0
  9
$USERI1
 70
     0
  9
$USERI2
 70
     0
  9
$USERI3
 70
     0
  9
$USERI4
 70
     0
  9
$USERI5
 70
     0
  9
$USERR1
 40
0.0
  9
$USERR2
 40
0.0
  9
$USERR3
 40
0.0
  9
$USERR4
 40
0.0
  9
$USERR5
 40
0.0
  9
$WORLDVIEW
 70
     1
  9
$SHADEDGE
 70
     3
  9
$SHADEDIF
 70
    70
  9
$TILEMODE
 70
     1
  9
$MAXACTVP
 70
    16
  9
$PINSBASE
 10
0.0
 20
0.0
 30
0.0
  9
$PLIMCHECK
 70
     0
  9
$PEXTMIN
 10
1.000000E+20
 20
1.000000E+20
 30
1.000000E+20
  9
$PEXTMAX
 10
-1.000000E+20
 20
-1.000000E+20
 30
-1.000000E+20
  9
$PLIMMIN
 10
0.0
 20
0.0
  9
$PLIMMAX
 10
12.0
 20
9.0
  9
$UNITMODE
 70
     0
  9
$VISRETAIN
 70
     0
  9
$PLINEGEN
 70
     1
  9
$PSLTSCALE
 70
     0
  9
$TREEDEPTH
 70
  3020
  9
$PICKSTYLE
 70
     1
  9
$CMLSTYLE
  2
Standard
  9
$CMLJUST
 70
     0
  9
$CMLSCALE
 40
1.0
  9
$PROXYGRAPHICS
 70
     0
  9
$MEASUREMENT
 70
     0
  0
ENDSEC
  0
SECTION
  2
CLASSES
  0
CLASS
  1
LWPOLYLINE
  2
AcDbPolyline
  3
"AutoCAD"
 90
        0
280
     0
281
     1
  0
CLASS
  1
IMAGE
  2
AcDbRasterImage
  3
ISM
 90
      127
280
     0
281
     1
  0
CLASS
  1
OLE2FRAME
  2
AcDbOle2Frame
  3
""
 90
        0
280
     0
281
     1
  0
CLASS
  1
HATCH
  2
AcDbHatch
  3
"ACAD_SEDONA"
 90
        0
280
     0
281
     1
  0
CLASS
  1
DICTIONARYVAR
  2
AcDbDictionaryVar
  3
"AutoCAD"
 90
        0
280
     0
281
     0
  0
CLASS
  1
RASTERVARIABLES
  2
AcDbRasterVariables
  3
ISM
 90
        0
280
     0
281
     0
  0
CLASS
  1
IMAGEDEF
  2
AcDbRasterImageDef
  3
ISM
 90
        0
280
     0
281
     0
  0
CLASS
  1
IMAGEDEF_REACTOR
  2
AcDbRasterImageDefReactor
  3
ISM
 90
        1
280
     0
281
     0
  0
CLASS
  1
IDBUFFER
  2
AcDbIdBuffer
  3
"Acad"
 90
        0
280
     0
281
     0
  0
CLASS
  1
SPATIAL_FILTER
  2
AcDbSpatialFilter
  3
"Acad"
 90
        0
280
     0
281
     0
  0
CLASS
  1
XRECORD
  2
AcDbXrecord
  3
"<Built In>"
 90
        0
280
     0
281
     0
  0
CLASS
  1
SORTENTSTABLE
  2
AcDbSortentsTable
  3
"AutoCAD"
 90
        0
280
     0
281
     0
  0
CLASS
  1
LAYER_INDEX
  2
AcDbLayerIndex
  3
"Acad"
 90
        0
280
     0
281
     0
  0
CLASS
  1
SPATIAL_INDEX
  2
AcDbSpatialIndex
  3
"Acad"
 90
        0
280
     0
281
     0
  0
CLASS
  1
OBJECT_PTR
  2
CAseDLPNTableRecord
  3
"ASE-LPNTableRecord"
 90
        1
280
     0
281
     0
  0
CLASS
  1
LAYOUT
  2
AcDbLayout
  3
"AutoCAD 2000"
 90
        1
280
     0
281
     0
  0
CLASS
  1
PLOTSETTINGS
  2
AcDbPlotSettings
  3
"AutoCAD 2000"
 90
        1
280
     0
281
     0
  0
CLASS
  1
ACDBDICTIONARYWDFLT
  2
AcDbDictionaryWithDefault
  3
"AutoCAD 2000"
 90
        1
280
     0
281
     0
  0
CLASS
  1
ACDBPLACEHOLDER
  2
AcDbPlaceHolder
  3
"AutoCAD 2000"
 90
        1
280
     0
281
     0
  0
CLASS
  1
VBA_PROJECT
  2
AcDbVbaProject
  3
"acadvba"
 90
        1
280
     0
281
     0
  0
CLASS
  1
WIPEOUT
  2
AcDbWipeout
  3
WipeOut|AutoCAD Express Tool|expresstools@autodesk.com
 90
      127
280
     0
281
     1
  0
CLASS
  1
WIPEOUTVARIABLES
  2
AcDbWipeoutVariables
  3
WipeOut|AutoCAD Express Tool|expresstools@autodesk.com
 90
        0
280
     0
281
     0
  0
CLASS
  1
RTEXT
  2
RText
  3
RText|AutoCAD Express Tool|expresstools@autodesk.com
 90
        0
280
     0
281
     1
  0
CLASS
  1
ARCALIGNEDTEXT
  2
AcDbArcAlignedText
  3
ATEXT|AutoCAD Express Tool|expresstools@autodesk.com
 90
        0
280
     0
281
     1
  0
ENDSEC
  0
SECTION
  2
TABLES
  0
TABLE
  2
VPORT
  5
7
100
AcDbSymbolTable
 70
     1
  0
VPORT
  5
15
100
AcDbSymbolTableRecord
100
AcDbViewportTableRecord
  2
*ACTIVE
 70
     0
 10
0.0
 20
0.0
 11
1.0
 21
1.0
 12
100.35
 22
148.5
 13
0.0
 23
0.0
 14
1.0
 24
1.0
 15
0.0
 25
0.0
 16
0.0
 26
0.0
 36
1.0
 17
0.0
 27
0.0
 37
0.0
 40
280.0
 41
1.722533
 42
50.0
 43
0.0
 44
0.0
 50
0.0
 51
0.0
 71
     0
 72
   100
 73
     1
 74
     1
 75
     0
 76
     0
 77
     0
 78
     0
  0
ENDTAB
  0
TABLE
  2
LTYPE
  5
4
100
AcDbSymbolTable
 70
     9
  0
LTYPE
  5
11
100
AcDbSymbolTableRecord
100
AcDbLinetypeTableRecord
  2
BYBLOCK
 70
    64
  3

 72
    65
 73
     0
 40
0.0
  0
LTYPE
  5
12
100
AcDbSymbolTableRecord
100
AcDbLinetypeTableRecord
  2
BYLAYER
 70
    64
  3

 72
    65
 73
     0
 40
0.0
  0
LTYPE
  5
13
100
AcDbSymbolTableRecord
100
AcDbLinetypeTableRecord
  2
CONTINUOUS
 70
    64
  3
実線
 72
    65
 73
     0
 40
0.0
  0
LTYPE
  5
1D
100
AcDbSymbolTableRecord
100
AcDbLinetypeTableRecord
  2
EXLTYPE1
 70
    64
  3
破線
 72
    65
 73
     2
 40
3.0
 49
2.0
 74
     0
 49
-1.0
 74
     0
  0
LTYPE
  5
1E
100
AcDbSymbolTableRecord
100
AcDbLinetypeTableRecord
  2
EXLTYPE2
 70
    64
  3
点線
 72
    65
 73
     2
 40
2.0
 49
1.0
 74
     0
 49
-1.0
 74
     0
  0
LTYPE
  5
1F
100
AcDbSymbolTableRecord
100
AcDbLinetypeTableRecord
  2
EXLTYPE3
 70
    64
  3
一点鎖線
 72
    65
 73
     4
 40
10.0
 49
7.0
 74
     0
 49
-1.0
 74
     0
 49
1.0
 74
     0
 49
-1.0
 74
     0
  0
LTYPE
  5
20
100
AcDbSymbolTableRecord
100
AcDbLinetypeTableRecord
  2
EXLTYPE4
 70
    64
  3
二点鎖線
 72
    65
 73
     6
 40
12.0
 49
7.0
 74
     0
 49
-1.0
 74
     0
 49
1.0
 74
     0
 49
-1.0
 74
     0
 49
1.0
 74
     0
 49
-1.0
 74
     0
  0
LTYPE
  5
21
100
AcDbSymbolTableRecord
100
AcDbLinetypeTableRecord
  2
EXLTYPE5
 70
    64
  3
三点鎖線
 72
    65
 73
     8
 40
37.0
 49
30.0
 74
     0
 49
-1.0
 74
     0
 49
1.0
 74
     0
 49
-1.0
 74
     0
 49
1.0
 74
     0
 49
-1.0
 74
     0
 49
1.0
 74
     0
 49
-1.0
 74
     0
  0
LTYPE
  5
22
100
AcDbSymbolTableRecord
100
AcDbLinetypeTableRecord
  2
EXLTYPE6
 70
    64
  3
四点鎖線
 72
    65
 73
    10
 40
39.0
 49
30.0
 74
     0
 49
-1.0
 74
     0
 49
1.0
 74
     0
 49
-1.0
 74
     0
 49
1.0
 74
     0
 49
-1.0
 74
     0
 49
1.0
 74
     0
 49
-1.0
 74
     0
 49
1.0
 74
     0
 49
-1.0
 74
     0
  0
ENDTAB
  0
TABLE
  2
LAYER
  5
2
100
AcDbSymbolTable
 70
     4
  0
LAYER
  5
14
100
AcDbSymbolTableRecord
100
AcDbLayerTableRecord
  2
0
 70
     0
 62
     7
  6
CONTINUOUS
  0
LAYER
  5
25
100
AcDbSymbolTableRecord
100
AcDbLayerTableRecord
  2
1
 70
    64
 62
     7
  6
CONTINUOUS
  0
LAYER
  5
26
100
AcDbSymbolTableRecord
100
AcDbLayerTableRecord
  2
2
 70
    64
 62
     7
  6
CONTINUOUS
  0
LAYER
  5
27
100
AcDbSymbolTableRecord
100
AcDbLayerTableRecord
  2
LAY-4
 70
    64
 62
     7
  6
CONTINUOUS
  0
ENDTAB
  0
TABLE
  2
STYLE
  5
3
100
AcDbSymbolTable
 70
     3
  0
STYLE
  5
17
100
AcDbSymbolTableRecord
100
AcDbTextStyleTableRecord
  2
STANDARD
 70
     0
 40
0.0
 41
1.0
 50
0.0
 71
     0
 42
0.0
  3
monotxt
  4
extfont
  0
STYLE
  5
23
100
AcDbSymbolTableRecord
100
AcDbTextStyleTableRecord
  2
EXCADSTD
 70
    64
 40
0.0
 41
1.0
 50
0.0
 71
     0
 42
0.2
  3
monotxt
  4
extfont
  0
STYLE
  5
24
100
AcDbSymbolTableRecord
100
AcDbTextStyleTableRecord
  2
EXCADVERT
 70
    68
 40
0.0
 41
1.0
 50
0.0
 71
     0
 42
0.286885
  3
monotxt
  4
extfont
  0
ENDTAB
  0
TABLE
  2
VIEW
  5
5
100
AcDbSymbolTable
 70
     0
  0
ENDTAB
  0
TABLE
  2
UCS
  5
6
100
AcDbSymbolTable
 70
     0
  0
ENDTAB
  0
TABLE
  2
APPID
  5
8
100
AcDbSymbolTable
 70
     1
  0
APPID
  5
16
100
AcDbSymbolTableRecord
100
AcDbRegAppTableRecord
  2
ACAD
 70
     0
  0
ENDTAB
  0
TABLE
  2
DIMSTYLE
  5
9
100
AcDbSymbolTable
 70
     1
  0
DIMSTYLE
105
18
100
AcDbSymbolTableRecord
100
AcDbDimStyleTableRecord
  2
STANDARD
 70
     0
  3

  4

  5

  6

  7

 40
1.0
 41
0.18
 42
0.0625
 43
0.38
 44
0.18
 45
0.0
 46
0.0
 47
0.0
 48
0.0
 71
     0
 72
     0
 73
     1
 74
     1
 75
     0
 76
     0
 77
     0
 78
     0
140
0.18
141
0.09
142
0.0
143
25.4
144
1.0
145
0.0
146
1.0
147
0.09
170
     0
171
     2
172
     1
173
     0
174
     0
175
     0
176
     0
177
     0
178
     0
270
     2
271
     4
272
     4
273
     2
274
     2
275
     0
280
     0
281
     0
282
     0
283
     1
284
     0
285
     0
286
     0
287
     0
288
     0
340
17
  0
ENDTAB
  0
TABLE
  2
BLOCK_RECORD
  5
1
100
AcDbSymbolTable
 70
    15
  0
BLOCK_RECORD
  5
A
100
AcDbSymbolTableRecord
100
AcDbBlockTableRecord
  2
*MODEL_SPACE
  0
BLOCK_RECORD
  5
B
100
AcDbSymbolTableRecord
100
AcDbBlockTableRecord
  2
*PAPER_SPACE
  0
BLOCK_RECORD
  5
28
100
AcDbSymbolTableRecord
100
AcDbBlockTableRecord
  2
_EX_NORM
  0
BLOCK_RECORD
  5
29
100
AcDbSymbolTableRecord
100
AcDbBlockTableRecord
  2
_EX_BNORM
  0
BLOCK_RECORD
  5
2A
100
AcDbSymbolTableRecord
100
AcDbBlockTableRecord
  2
_EX_BCIR
  0
BLOCK_RECORD
  5
2B
100
AcDbSymbolTableRecord
100
AcDbBlockTableRecord
  2
_EX_RCIVIL
  0
BLOCK_RECORD
  5
2C
100
AcDbSymbolTableRecord
100
AcDbBlockTableRecord
  2
_EX_SLANT
  0
BLOCK_RECORD
  5
2D
100
AcDbSymbolTableRecord
100
AcDbBlockTableRecord
  2
_EX_NONE
  0
BLOCK_RECORD
  5
2E
100
AcDbSymbolTableRecord
100
AcDbBlockTableRecord
  2
_EX_CIVIL
  0
BLOCK_RECORD
  5
2F
100
AcDbSymbolTableRecord
100
AcDbBlockTableRecord
  2
_EX_WCIR
  0
BLOCK_RECORD
  5
30
100
AcDbSymbolTableRecord
100
AcDbBlockTableRecord
  2
_EX_WCIR2
  0
BLOCK_RECORD
  5
31
100
AcDbSymbolTableRecord
100
AcDbBlockTableRecord
  2
_EX_WNORM
  0
BLOCK_RECORD
  5
32
100
AcDbSymbolTableRecord
100
AcDbBlockTableRecord
  2
_EX_NNORM
  0
BLOCK_RECORD
  5
33
100
AcDbSymbolTableRecord
100
AcDbBlockTableRecord
  2
_EX_BBOX
  0
BLOCK_RECORD
  5
34
100
AcDbSymbolTableRecord
100
AcDbBlockTableRecord
  2
_EX_WBOX
  0
BLOCK_RECORD
  5
35
100
AcDbSymbolTableRecord
100
AcDbBlockTableRecord
  2
_EX_INTEGRAL
  0
BLOCK_RECORD
  5
36
100
AcDbSymbolTableRecord
100
AcDbBlockTableRecord
  2
JANIS-A4
  0
ENDTAB
  0
ENDSEC
  0
SECTION
  2
BLOCKS
  0
BLOCK
  5
D
100
AcDbEntity
  8
0
100
AcDbBlockBegin
  2
*MODEL_SPACE
 70
     0
 10
0.0
 20
0.0
 30
0.0
  3
*MODEL_SPACE
  1

  0
ENDBLK
  5
E
100
AcDbEntity
  8
0
100
AcDbBlockEnd
  0
BLOCK
  5
F
100
AcDbEntity
 67
     1
  8
0
100
AcDbBlockBegin
  2
*PAPER_SPACE
 70
     0
 10
0.0
 20
0.0
 30
0.0
  3
*PAPER_SPACE
  1

  0
ENDBLK
  5
10
100
AcDbEntity
 67
     1
  8
0
100
AcDbBlockEnd
  0
BLOCK
  5
37
100
AcDbEntity
  8
0
100
AcDbBlockBegin
  2
_EX_NORM
 70
     0
 10
0.0
 20
0.0
 30
0.0
  3
_EX_NORM
  1

  0
LINE
  5
38
100
AcDbEntity
  8
0
  6
CONTINUOUS
 62
     0
100
AcDbLine
 10
0.0
 20
0.0
 30
0.0
 11
-1.0
 21
0.0
 31
0.0
  0
LINE
  5
39
100
AcDbEntity
  8
0
  6
CONTINUOUS
 62
     0
100
AcDbLine
 10
0.0
 20
0.0
 30
0.0
 11
-1.0
 21
0.166667
 31
0.0
  0
LINE
  5
3A
100
AcDbEntity
  8
0
  6
CONTINUOUS
 62
     0
100
AcDbLine
 10
0.0
 20
0.0
 30
0.0
 11
-1.0
 21
-0.166667
 31
0.0
  0
ENDBLK
  5
3B
100
AcDbEntity
  8
0
100
AcDbBlockEnd
  0
BLOCK
  5
3C
100
AcDbEntity
  8
0
100
AcDbBlockBegin
  2
_EX_BNORM
 70
     0
 10
0.0
 20
0.0
 30
0.0
  3
_EX_BNORM
  1

  0
LINE
  5
3D
100
AcDbEntity
  8
0
  6
CONTINUOUS
 62
     0
100
AcDbLine
 10
0.0
 20
0.0
 30
0.0
 11
-1.0
 21
0.0
 31
0.0
  0
LINE
  5
3E
100
AcDbEntity
  8
0
  6
CONTINUOUS
 62
     0
100
AcDbLine
 10
0.0
 20
0.0
 30
0.0
 11
-1.0
 21
0.166667
 31
0.0
  0
LINE
  5
3F
100
AcDbEntity
  8
0
  6
CONTINUOUS
 62
     0
100
AcDbLine
 10
0.0
 20
0.0
 30
0.0
 11
-1.0
 21
-0.166667
 31
0.0
  0
LINE
  5
40
100
AcDbEntity
  8
0
  6
CONTINUOUS
 62
     0
100
AcDbLine
 10
0.0
 20
0.0
 30
0.0
 11
-1.0
 21
0.083333
 31
0.0
  0
LINE
  5
41
100
AcDbEntity
  8
0
  6
CONTINUOUS
 62
     0
100
AcDbLine
 10
0.0
 20
0.0
 30
0.0
 11
-1.0
 21
-0.083333
 31
0.0
  0
LINE
  5
42
100
AcDbEntity
  8
0
  6
CONTINUOUS
 62
     0
100
AcDbLine
 10
-1.0
 20
0.166667
 30
0.0
 11
-1.0
 21
-0.166667
 31
0.0
  0
ENDBLK
  5
43
100
AcDbEntity
  8
0
100
AcDbBlockEnd
  0
BLOCK
  5
44
100
AcDbEntity
  8
0
100
AcDbBlockBegin
  2
_EX_BCIR
 70
     0
 10
0.0
 20
0.0
 30
0.0
  3
_EX_BCIR
  1

  0
LINE
  5
45
100
AcDbEntity
  8
0
  6
CONTINUOUS
 62
     0
100
AcDbLine
 10
0.0
 20
0.0
 30
0.0
 11
-1.0
 21
0.0
 31
0.0
  0
CIRCLE
  5
46
100
AcDbEntity
  8
0
  6
CONTINUOUS
 62
     0
100
AcDbCircle
 10
0.0
 20
0.0
 30
0.0
 40
0.5
  0
CIRCLE
  5
47
100
AcDbEntity
  8
0
  6
CONTINUOUS
 62
     0
100
AcDbCircle
 10
0.0
 20
0.0
 30
0.0
 40
0.25
  0
ENDBLK
  5
48
100
AcDbEntity
  8
0
100
AcDbBlockEnd
  0
BLOCK
  5
49
100
AcDbEntity
  8
0
100
AcDbBlockBegin
  2
_EX_RCIVIL
 70
     0
 10
0.0
 20
0.0
 30
0.0
  3
_EX_RCIVIL
  1

  0
LINE
  5
4A
100
AcDbEntity
  8
0
  6
CONTINUOUS
 62
     0
100
AcDbLine
 10
0.0
 20
0.0
 30
0.0
 11
-1.0
 21
0.0
 31
0.0
  0
LINE
  5
4B
100
AcDbEntity
  8
0
  6
CONTINUOUS
 62
     0
100
AcDbLine
 10
-1.0
 20
-0.25
 30
0.0
 11
0.0
 21
-0.25
 31
0.0
  0
LINE
  5
4C
100
AcDbEntity
  8
0
  6
CONTINUOUS
 62
     0
100
AcDbLine
 10
-1.0
 20
-0.125
 30
0.0
 11
0.0
 21
-0.125
 31
0.0
  0
ENDBLK
  5
4D
100
AcDbEntity
  8
0
100
AcDbBlockEnd
  0
BLOCK
  5
4E
100
AcDbEntity
  8
0
100
AcDbBlockBegin
  2
_EX_SLANT
 70
     0
 10
0.0
 20
0.0
 30
0.0
  3
_EX_SLANT
  1

  0
LINE
  5
4F
100
AcDbEntity
  8
0
  6
CONTINUOUS
 62
     0
100
AcDbLine
 10
0.0
 20
0.0
 30
0.0
 11
-1.0
 21
0.0
 31
0.0
  0
LINE
  5
50
100
AcDbEntity
  8
0
  6
CONTINUOUS
 62
     0
100
AcDbLine
 10
0.707107
 20
0.707107
 30
0.0
 11
-0.707107
 21
-0.707107
 31
0.0
  0
ENDBLK
  5
51
100
AcDbEntity
  8
0
100
AcDbBlockEnd
  0
BLOCK
  5
52
100
AcDbEntity
  8
0
100
AcDbBlockBegin
  2
_EX_NONE
 70
     0
 10
0.0
 20
0.0
 30
0.0
  3
_EX_NONE
  1

  0
LINE
  5
53
100
AcDbEntity
  8
0
  6
CONTINUOUS
 62
     0
100
AcDbLine
 10
0.0
 20
0.0
 30
0.0
 11
-1.0
 21
0.0
 31
0.0
  0
ENDBLK
  5
54
100
AcDbEntity
  8
0
100
AcDbBlockEnd
  0
BLOCK
  5
55
100
AcDbEntity
  8
0
100
AcDbBlockBegin
  2
_EX_CIVIL
 70
     0
 10
0.0
 20
0.0
 30
0.0
  3
_EX_CIVIL
  1

  0
LINE
  5
56
100
AcDbEntity
  8
0
  6
CONTINUOUS
 62
     0
100
AcDbLine
 10
0.0
 20
0.0
 30
0.0
 11
-1.0
 21
0.0
 31
0.0
  0
LINE
  5
57
100
AcDbEntity
  8
0
  6
CONTINUOUS
 62
     0
100
AcDbLine
 10
-1.0
 20
0.25
 30
0.0
 11
0.0
 21
0.25
 31
0.0
  0
LINE
  5
58
100
AcDbEntity
  8
0
  6
CONTINUOUS
 62
     0
100
AcDbLine
 10
-1.0
 20
0.125
 30
0.0
 11
0.0
 21
0.125
 31
0.0
  0
ENDBLK
  5
59
100
AcDbEntity
  8
0
100
AcDbBlockEnd
  0
BLOCK
  5
5A
100
AcDbEntity
  8
0
100
AcDbBlockBegin
  2
_EX_WCIR
 70
     0
 10
0.0
 20
0.0
 30
0.0
  3
_EX_WCIR
  1

  0
LINE
  5
5B
100
AcDbEntity
  8
0
  6
CONTINUOUS
 62
     0
100
AcDbLine
 10
0.0
 20
0.0
 30
0.0
 11
-1.0
 21
0.0
 31
0.0
  0
CIRCLE
  5
5C
100
AcDbEntity
  8
0
  6
CONTINUOUS
 62
     0
100
AcDbCircle
 10
0.0
 20
0.0
 30
0.0
 40
0.5
  0
ENDBLK
  5
5D
100
AcDbEntity
  8
0
100
AcDbBlockEnd
  0
BLOCK
  5
5E
100
AcDbEntity
  8
0
100
AcDbBlockBegin
  2
_EX_WCIR2
 70
     0
 10
0.0
 20
0.0
 30
0.0
  3
_EX_WCIR2
  1

  0
LINE
  5
5F
100
AcDbEntity
  8
0
  6
CONTINUOUS
 62
     0
100
AcDbLine
 10
-0.5
 20
0.0
 30
0.0
 11
-1.0
 21
0.0
 31
0.0
  0
CIRCLE
  5
60
100
AcDbEntity
  8
0
  6
CONTINUOUS
 62
     0
100
AcDbCircle
 10
0.0
 20
0.0
 30
0.0
 40
0.5
  0
ENDBLK
  5
61
100
AcDbEntity
  8
0
100
AcDbBlockEnd
  0
BLOCK
  5
62
100
AcDbEntity
  8
0
100
AcDbBlockBegin
  2
_EX_WNORM
 70
     0
 10
0.0
 20
0.0
 30
0.0
  3
_EX_WNORM
  1

  0
LINE
  5
63
100
AcDbEntity
  8
0
  6
CONTINUOUS
 62
     0
100
AcDbLine
 10
-1.0
 20
0.0
 30
0.0
 11
-1.0
 21
0.0
 31
0.0
  0
LINE
  5
64
100
AcDbEntity
  8
0
  6
CONTINUOUS
 62
     0
100
AcDbLine
 10
0.0
 20
0.0
 30
0.0
 11
-1.0
 21
0.166667
 31
0.0
  0
LINE
  5
65
100
AcDbEntity
  8
0
  6
CONTINUOUS
 62
     0
100
AcDbLine
 10
0.0
 20
0.0
 30
0.0
 11
-1.0
 21
-0.166667
 31
0.0
  0
LINE
  5
66
100
AcDbEntity
  8
0
  6
CONTINUOUS
 62
     0
100
AcDbLine
 10
-1.0
 20
0.166667
 30
0.0
 11
-1.0
 21
-0.166667
 31
0.0
  0
ENDBLK
  5
67
100
AcDbEntity
  8
0
100
AcDbBlockEnd
  0
BLOCK
  5
68
100
AcDbEntity
  8
0
100
AcDbBlockBegin
  2
_EX_NNORM
 70
     0
 10
0.0
 20
0.0
 30
0.0
  3
_EX_NNORM
  1

  0
LINE
  5
69
100
AcDbEntity
  8
0
  6
CONTINUOUS
 62
     0
100
AcDbLine
 10
0.0
 20
0.0
 30
0.0
 11
-1.0
 21
0.0
 31
0.0
  0
LINE
  5
6A
100
AcDbEntity
  8
0
  6
CONTINUOUS
 62
     0
100
AcDbLine
 10
0.0
 20
0.0
 30
0.0
 11
-1.0
 21
0.166667
 31
0.0
  0
LINE
  5
6B
100
AcDbEntity
  8
0
  6
CONTINUOUS
 62
     0
100
AcDbLine
 10
0.0
 20
0.0
 30
0.0
 11
-1.0
 21
-0.166667
 31
0.0
  0
LINE
  5
6C
100
AcDbEntity
  8
0
  6
CONTINUOUS
 62
     0
100
AcDbLine
 10
-1.0
 20
0.166667
 30
0.0
 11
-1.0
 21
-0.166667
 31
0.0
  0
ENDBLK
  5
6D
100
AcDbEntity
  8
0
100
AcDbBlockEnd
  0
BLOCK
  5
6E
100
AcDbEntity
  8
0
100
AcDbBlockBegin
  2
_EX_BBOX
 70
     0
 10
0.0
 20
0.0
 30
0.0
  3
_EX_BBOX
  1

  0
LINE
  5
6F
100
AcDbEntity
  8
0
  6
CONTINUOUS
 62
     0
100
AcDbLine
 10
0.0
 20
0.0
 30
0.0
 11
-1.0
 21
0.0
 31
0.0
  0
LINE
  5
70
100
AcDbEntity
  8
0
  6
CONTINUOUS
 62
     0
100
AcDbLine
 10
-0.5
 20
0.5
 30
0.0
 11
0.5
 21
0.5
 31
0.0
  0
LINE
  5
71
100
AcDbEntity
  8
0
  6
CONTINUOUS
 62
     0
100
AcDbLine
 10
0.5
 20
0.5
 30
0.0
 11
0.5
 21
-0.5
 31
0.0
  0
LINE
  5
72
100
AcDbEntity
  8
0
  6
CONTINUOUS
 62
     0
100
AcDbLine
 10
0.5
 20
-0.5
 30
0.0
 11
-0.5
 21
-0.5
 31
0.0
  0
LINE
  5
73
100
AcDbEntity
  8
0
  6
CONTINUOUS
 62
     0
100
AcDbLine
 10
-0.5
 20
-0.5
 30
0.0
 11
-0.5
 21
0.5
 31
0.0
  0
LINE
  5
74
100
AcDbEntity
  8
0
  6
CONTINUOUS
 62
     0
100
AcDbLine
 10
-0.25
 20
0.25
 30
0.0
 11
0.25
 21
0.25
 31
0.0
  0
LINE
  5
75
100
AcDbEntity
  8
0
  6
CONTINUOUS
 62
     0
100
AcDbLine
 10
0.25
 20
0.25
 30
0.0
 11
0.25
 21
-0.25
 31
0.0
  0
LINE
  5
76
100
AcDbEntity
  8
0
  6
CONTINUOUS
 62
     0
100
AcDbLine
 10
0.25
 20
-0.25
 30
0.0
 11
-0.25
 21
-0.25
 31
0.0
  0
LINE
  5
77
100
AcDbEntity
  8
0
  6
CONTINUOUS
 62
     0
100
AcDbLine
 10
-0.25
 20
-0.25
 30
0.0
 11
-0.25
 21
0.25
 31
0.0
  0
ENDBLK
  5
78
100
AcDbEntity
  8
0
100
AcDbBlockEnd
  0
BLOCK
  5
79
100
AcDbEntity
  8
0
100
AcDbBlockBegin
  2
_EX_WBOX
 70
     0
 10
0.0
 20
0.0
 30
0.0
  3
_EX_WBOX
  1

  0
LINE
  5
7A
100
AcDbEntity
  8
0
  6
CONTINUOUS
 62
     0
100
AcDbLine
 10
-0.5
 20
0.0
 30
0.0
 11
-1.0
 21
0.0
 31
0.0
  0
LINE
  5
7B
100
AcDbEntity
  8
0
  6
CONTINUOUS
 62
     0
100
AcDbLine
 10
-0.5
 20
0.5
 30
0.0
 11
0.5
 21
0.5
 31
0.0
  0
LINE
  5
7C
100
AcDbEntity
  8
0
  6
CONTINUOUS
 62
     0
100
AcDbLine
 10
0.5
 20
0.5
 30
0.0
 11
0.5
 21
-0.5
 31
0.0
  0
LINE
  5
7D
100
AcDbEntity
  8
0
  6
CONTINUOUS
 62
     0
100
AcDbLine
 10
0.5
 20
-0.5
 30
0.0
 11
-0.5
 21
-0.5
 31
0.0
  0
LINE
  5
7E
100
AcDbEntity
  8
0
  6
CONTINUOUS
 62
     0
100
AcDbLine
 10
-0.5
 20
-0.5
 30
0.0
 11
-0.5
 21
0.5
 31
0.0
  0
ENDBLK
  5
7F
100
AcDbEntity
  8
0
100
AcDbBlockEnd
  0
BLOCK
  5
80
100
AcDbEntity
  8
0
100
AcDbBlockBegin
  2
_EX_INTEGRAL
 70
     0
 10
0.0
 20
0.0
 30
0.0
  3
_EX_INTEGRAL
  1

  0
LINE
  5
81
100
AcDbEntity
  8
0
  6
CONTINUOUS
 62
     0
100
AcDbLine
 10
0.0
 20
0.0
 30
0.0
 11
-1.0
 21
0.0
 31
0.0
  0
ARC
  5
82
100
AcDbEntity
  8
0
  6
CONTINUOUS
 62
     0
100
AcDbCircle
 10
0.542115
 20
0.164992
 30
0.0
 40
0.56667
100
AcDbArc
 50
73.07249
 51
196.927513
  0
ARC
  5
83
100
AcDbEntity
  8
0
  6
CONTINUOUS
 62
     0
100
AcDbCircle
 10
-0.542115
 20
-0.164992
 30
0.0
 40
0.56667
100
AcDbArc
 50
253.072487
 51
16.927513
  0
ENDBLK
  5
84
100
AcDbEntity
  8
0
100
AcDbBlockEnd
  0
BLOCK
  5
85
100
AcDbEntity
  8
0
100
AcDbBlockBegin
  2
JANIS-A4
 70
     0
 10
0.0
 20
0.0
 30
0.0
  3
JANIS-A4
  1

  0
LINE
  5
86
100
AcDbEntity
  8
0
  6
CONTINUOUS
 62
     3
100
AcDbLine
 10
5.644775
 20
3.628799
 30
0.0
 11
4.838409
 21
3.628799
 31
0.0
  0
LINE
  5
87
100
AcDbEntity
  8
0
  6
CONTINUOUS
 62
     3
100
AcDbLine
 10
5.644775
 20
4.435196
 30
0.0
 11
5.644775
 21
3.628799
 31
0.0
  0
LINE
  5
88
100
AcDbEntity
  8
0
  6
CONTINUOUS
 62
     3
100
AcDbLine
 10
4.838409
 20
4.435196
 30
0.0
 11
5.644775
 21
4.435196
 31
0.0
  0
LINE
  5
89
100
AcDbEntity
  8
0
  6
CONTINUOUS
 62
     3
100
AcDbLine
 10
4.838409
 20
4.435196
 30
0.0
 11
4.838409
 21
3.628799
 31
0.0
  0
LINE
  5
8A
100
AcDbEntity
  8
0
  6
CONTINUOUS
 62
     3
100
AcDbLine
 10
4.535919
 20
3.628799
 30
0.0
 11
3.729553
 21
3.628799
 31
0.0
  0
LINE
  5
8B
100
AcDbEntity
  8
0
  6
CONTINUOUS
 62
     3
100
AcDbLine
 10
4.535919
 20
4.435196
 30
0.0
 11
4.535919
 21
3.628799
 31
0.0
  0
LINE
  5
8C
100
AcDbEntity
  8
0
  6
CONTINUOUS
 62
     3
100
AcDbLine
 10
3.729553
 20
4.435196
 30
0.0
 11
4.535919
 21
4.435196
 31
0.0
  0
LINE
  5
8D
100
AcDbEntity
  8
0
  6
CONTINUOUS
 62
     3
100
AcDbLine
 10
3.729553
 20
4.435196
 30
0.0
 11
3.729553
 21
3.628799
 31
0.0
  0
LINE
  5
8E
100
AcDbEntity
  8
0
  6
CONTINUOUS
 62
     3
100
AcDbLine
 10
2.888733
 20
0.0
 30
0.0
 11
0.0
 21
0.0
 31
0.0
  0
ARC
  5
8F
100
AcDbEntity
  8
0
  6
CONTINUOUS
 62
     3
100
AcDbCircle
 10
2.888733
 20
1.814407
 30
0.0
 40
1.8144
100
AcDbArc
 50
270.000031
 51
334.000137
  0
LINE
  5
90
100
AcDbEntity
  8
0
  6
CONTINUOUS
 62
     3
100
AcDbLine
 10
5.644775
 20
3.326401
 30
0.0
 11
4.519302
 21
1.019012
 31
0.0
  0
LINE
  5
91
100
AcDbEntity
  8
0
  6
CONTINUOUS
 62
     3
100
AcDbLine
 10
4.411224
 20
3.326401
 30
0.0
 11
5.644775
 21
3.326401
 31
0.0
  0
LINE
  5
92
100
AcDbEntity
  8
0
  6
CONTINUOUS
 62
     3
100
AcDbLine
 10
3.501297
 20
1.460907
 30
0.0
 11
4.411224
 21
3.326401
 31
0.0
  0
ARC
  5
93
100
AcDbEntity
  8
0
  6
CONTINUOUS
 62
     3
100
AcDbCircle
 10
2.77655
 20
1.814407
 30
0.0
 40
0.8064
100
AcDbArc
 50
270.000031
 51
333.99855
  0
LINE
  5
94
100
AcDbEntity
  8
0
  6
CONTINUOUS
 62
     3
100
AcDbLine
 10
0.0
 20
1.007996
 30
0.0
 11
2.77655
 21
1.007996
 31
0.0
  0
LINE
  5
95
100
AcDbEntity
  8
0
  6
CONTINUOUS
 62
     3
100
AcDbLine
 10
0.0
 20
1.007996
 30
0.0
 11
0.0
 21
0.0
 31
0.0
  0
LINE
  5
96
100
AcDbEntity
  8
0
  6
CONTINUOUS
 62
     3
100
AcDbLine
 10
2.822495
 20
2.31839
 30
0.0
 11
0.0
 21
2.31839
 31
0.0
  0
LINE
  5
97
100
AcDbEntity
  8
0
  6
CONTINUOUS
 62
     3
100
AcDbLine
 10
2.822495
 20
3.225601
 30
0.0
 11
2.822495
 21
2.31839
 31
0.0
  0
LINE
  5
98
100
AcDbEntity
  8
0
  6
CONTINUOUS
 62
     3
100
AcDbLine
 10
0.0
 20
3.225601
 30
0.0
 11
2.822495
 21
3.225601
 31
0.0
  0
LINE
  5
99
100
AcDbEntity
  8
0
  6
CONTINUOUS
 62
     3
100
AcDbLine
 10
0.0
 20
3.225601
 30
0.0
 11
0.0
 21
2.31839
 31
0.0
  0
LINE
  5
9A
100
AcDbEntity
  8
0
  6
CONTINUOUS
 62
     3
100
AcDbLine
 10
2.822495
 20
3.528
 30
0.0
 11
0.0
 21
3.528
 31
0.0
  0
LINE
  5
9B
100
AcDbEntity
  8
0
  6
CONTINUOUS
 62
     3
100
AcDbLine
 10
2.822495
 20
4.435196
 30
0.0
 11
2.822495
 21
3.528
 31
0.0
  0
LINE
  5
9C
100
AcDbEntity
  8
0
  6
CONTINUOUS
 62
     3
100
AcDbLine
 10
0.0
 20
4.435196
 30
0.0
 11
2.822495
 21
4.435196
 31
0.0
  0
LINE
  5
9D
100
AcDbEntity
  8
0
  6
CONTINUOUS
 62
     3
100
AcDbLine
 10
0.0
 20
4.435196
 30
0.0
 11
0.0
 21
3.528
 31
0.0
  0
LINE
  5
9E
100
AcDbEntity
  8
0
  6
CONTINUOUS
 62
     3
100
AcDbLine
 10
5.947266
 20
3.326401
 30
0.0
 11
5.947266
 21
2.620789
 31
0.0
  0
LINE
  5
9F
100
AcDbEntity
  8
0
  6
CONTINUOUS
 62
     3
100
AcDbLine
 10
5.947266
 20
3.326401
 30
0.0
 11
6.865402
 21
3.326401
 31
0.0
  0
LINE
  5
A0
100
AcDbEntity
  8
0
  6
CONTINUOUS
 62
     3
100
AcDbLine
 10
6.753632
 20
4.031998
 30
0.0
 11
6.865402
 21
3.326401
 31
0.0
  0
LINE
  5
A1
100
AcDbEntity
  8
0
  6
CONTINUOUS
 62
     3
100
AcDbLine
 10
6.753632
 20
4.031998
 30
0.0
 11
7.876236
 21
4.031998
 31
0.0
  0
LINE
  5
A2
100
AcDbEntity
  8
0
  6
CONTINUOUS
 62
     3
100
AcDbLine
 10
7.876236
 20
4.031998
 30
0.0
 11
7.987991
 21
3.326401
 31
0.0
  0
LINE
  5
A3
100
AcDbEntity
  8
0
  6
CONTINUOUS
 62
     3
100
AcDbLine
 10
7.987991
 20
3.326401
 30
0.0
 11
10.785675
 21
3.326401
 31
0.0
  0
LINE
  5
A4
100
AcDbEntity
  8
0
  6
CONTINUOUS
 62
     3
100
AcDbLine
 10
10.785675
 20
3.326401
 30
0.0
 11
10.197311
 21
2.005051
 31
0.0
  0
ARC
  5
A5
100
AcDbEntity
  8
0
  6
CONTINUOUS
 62
     3
100
AcDbCircle
 10
8.816101
 20
2.620041
 30
0.0
 40
1.512011
100
AcDbArc
 50
263.465775
 51
335.998779
  0
LINE
  5
A6
100
AcDbEntity
  8
0
  6
CONTINUOUS
 62
     3
100
AcDbLine
 10
8.643845
 20
1.117859
 30
0.0
 11
8.533707
 21
1.814407
 31
0.0
  0
ARC
  5
A7
100
AcDbEntity
  8
0
  6
CONTINUOUS
 62
     3
100
AcDbCircle
 10
8.505814
 20
2.419205
 30
0.0
 40
0.604801
100
AcDbArc
 50
272.623749
 51
336.006531
  0
LINE
  5
A8
100
AcDbEntity
  8
0
  6
CONTINUOUS
 62
     3
100
AcDbLine
 10
9.058502
 20
2.173203
 30
0.0
 11
9.257629
 21
2.620789
 31
0.0
  0
LINE
  5
A9
100
AcDbEntity
  8
0
  6
CONTINUOUS
 62
     3
100
AcDbLine
 10
9.257629
 20
2.620789
 30
0.0
 11
8.099762
 21
2.620789
 31
0.0
  0
LINE
  5
AA
100
AcDbEntity
  8
0
  6
CONTINUOUS
 62
     3
100
AcDbLine
 10
8.099762
 20
2.620789
 30
0.0
 11
8.514847
 21
0.0
 31
0.0
  0
LINE
  5
AB
100
AcDbEntity
  8
0
  6
CONTINUOUS
 62
     3
100
AcDbLine
 10
8.514847
 20
0.0
 30
0.0
 11
7.392242
 21
0.0
 31
0.0
  0
LINE
  5
AC
100
AcDbEntity
  8
0
  6
CONTINUOUS
 62
     2
100
AcDbLine
 10
7.392242
 20
0.0
 30
0.0
 11
6.977173
 21
2.620789
 31
0.0
  0
LINE
  5
AD
100
AcDbEntity
  8
0
  6
CONTINUOUS
 62
     2
100
AcDbLine
 10
6.977173
 20
2.620789
 30
0.0
 11
5.947266
 21
2.620789
 31
0.0
  0
LINE
  5
AE
100
AcDbEntity
  8
0
  6
CONTINUOUS
 62
     3
100
AcDbLine
 10
10.684769
 20
0.0
 30
0.0
 11
10.684769
 21
1.007996
 31
0.0
  0
LINE
  5
AF
100
AcDbEntity
  8
0
  6
CONTINUOUS
 62
     3
100
AcDbLine
 10
10.684769
 20
1.007996
 30
0.0
 11
16.329544
 21
1.007996
 31
0.0
  0
LINE
  5
B0
100
AcDbEntity
  8
0
  6
CONTINUOUS
 62
     3
100
AcDbLine
 10
16.329544
 20
1.007996
 30
0.0
 11
16.329544
 21
0.0
 31
0.0
  0
LINE
  5
B1
100
AcDbEntity
  8
0
  6
CONTINUOUS
 62
     3
100
AcDbLine
 10
16.329544
 20
0.0
 30
0.0
 11
10.684769
 21
0.0
 31
0.0
  0
LINE
  5
B2
100
AcDbEntity
  8
0
  6
CONTINUOUS
 62
     3
100
AcDbLine
 10
11.087952
 20
4.435196
 30
0.0
 11
11.087952
 21
3.4272
 31
0.0
  0
LINE
  5
B3
100
AcDbEntity
  8
0
  6
CONTINUOUS
 62
     3
100
AcDbLine
 10
11.087952
 20
4.435196
 30
0.0
 11
15.926361
 21
4.435196
 31
0.0
  0
LINE
  5
B4
100
AcDbEntity
  8
0
  6
CONTINUOUS
 62
     3
100
AcDbLine
 10
15.926361
 20
4.435196
 30
0.0
 11
15.926361
 21
3.4272
 31
0.0
  0
LINE
  5
B5
100
AcDbEntity
  8
0
  6
CONTINUOUS
 62
     3
100
AcDbLine
 10
15.926361
 20
3.4272
 30
0.0
 11
11.087952
 21
3.4272
 31
0.0
  0
LINE
  5
B6
100
AcDbEntity
  8
0
  6
CONTINUOUS
 62
     3
100
AcDbLine
 10
17.035217
 20
4.435196
 30
0.0
 11
17.035217
 21
3.4272
 31
0.0
  0
LINE
  5
B7
100
AcDbEntity
  8
0
  6
CONTINUOUS
 62
     3
100
AcDbLine
 10
17.035217
 20
4.435196
 30
0.0
 11
22.27681
 21
4.435196
 31
0.0
  0
LINE
  5
B8
100
AcDbEntity
  8
0
  6
CONTINUOUS
 62
     3
100
AcDbLine
 10
22.27681
 20
4.435196
 30
0.0
 11
20.705093
 21
2.271896
 31
0.0
  0
LINE
  5
B9
100
AcDbEntity
  8
0
  6
CONTINUOUS
 62
     3
100
AcDbLine
 10
20.705093
 20
2.271896
 30
0.0
 11
22.679993
 21
0.0
 31
0.0
  0
LINE
  5
BA
100
AcDbEntity
  8
0
  6
CONTINUOUS
 62
     3
100
AcDbLine
 10
22.679993
 20
0.0
 30
0.0
 11
21.210815
 21
0.0
 31
0.0
  0
LINE
  5
BB
100
AcDbEntity
  8
0
  6
CONTINUOUS
 62
     3
100
AcDbLine
 10
21.210815
 20
0.0
 30
0.0
 11
20.036133
 21
1.351273
 31
0.0
  0
LINE
  5
BC
100
AcDbEntity
  8
0
  6
CONTINUOUS
 62
     3
100
AcDbLine
 10
20.036133
 20
1.351273
 30
0.0
 11
19.597885
 21
0.747925
 31
0.0
  0
ARC
  5
BD
100
AcDbEntity
  8
0
  6
CONTINUOUS
 62
     3
100
AcDbCircle
 10
18.129929
 20
1.814407
 30
0.0
 40
1.8144
100
AcDbArc
 50
270.000031
 51
324.00116
  0
LINE
  5
BE
100
AcDbEntity
  8
0
  6
CONTINUOUS
 62
     3
100
AcDbLine
 10
18.129929
 20
0.0
 30
0.0
 11
16.632034
 21
0.0
 31
0.0
  0
LINE
  5
BF
100
AcDbEntity
  8
0
  6
CONTINUOUS
 62
     3
100
AcDbLine
 10
16.632034
 20
0.0
 30
0.0
 11
16.632034
 21
1.007996
 31
0.0
  0
LINE
  5
C0
100
AcDbEntity
  8
0
  6
CONTINUOUS
 62
     3
100
AcDbLine
 10
16.632034
 20
1.007996
 30
0.0
 11
17.90271
 21
1.007996
 31
0.0
  0
ARC
  5
C1
100
AcDbEntity
  8
0
  6
CONTINUOUS
 62
     3
100
AcDbCircle
 10
17.90271
 20
2.015991
 30
0.0
 40
1.007999
100
AcDbArc
 50
270.000031
 51
323.996597
  0
LINE
  5
C2
100
AcDbEntity
  8
0
  6
CONTINUOUS
 62
     3
100
AcDbLine
 10
18.718094
 20
1.423508
 30
0.0
 11
20.17395
 21
3.4272
 31
0.0
  0
LINE
  5
C3
100
AcDbEntity
  8
0
  6
CONTINUOUS
 62
     3
100
AcDbLine
 10
20.17395
 20
3.4272
 30
0.0
 11
17.035217
 21
3.4272
 31
0.0
  0
LINE
  5
C4
100
AcDbEntity
  8
0
  6
CONTINUOUS
 62
     3
100
AcDbLine
 10
23.889557
 20
4.435196
 30
0.0
 11
23.889557
 21
3.729599
 31
0.0
  0
LINE
  5
C5
100
AcDbEntity
  8
0
  6
CONTINUOUS
 62
     3
100
AcDbLine
 10
23.889557
 20
4.435196
 30
0.0
 11
29.131134
 21
4.435196
 31
0.0
  0
LINE
  5
C6
100
AcDbEntity
  8
0
  6
CONTINUOUS
 62
     3
100
AcDbLine
 10
29.131134
 20
4.435196
 30
0.0
 11
29.131134
 21
3.729599
 31
0.0
  0
LINE
  5
C7
100
AcDbEntity
  8
0
  6
CONTINUOUS
 62
     3
100
AcDbLine
 10
29.131134
 20
3.729599
 30
0.0
 11
27.064774
 21
3.729599
 31
0.0
  0
LINE
  5
C8
100
AcDbEntity
  8
0
  6
CONTINUOUS
 62
     3
100
AcDbLine
 10
27.064774
 20
3.729599
 30
0.0
 11
27.064774
 21
0.806412
 31
0.0
  0
LINE
  5
C9
100
AcDbEntity
  8
0
  6
CONTINUOUS
 62
     3
100
AcDbLine
 10
27.064774
 20
0.806412
 30
0.0
 11
29.332733
 21
0.806412
 31
0.0
  0
LINE
  5
CA
100
AcDbEntity
  8
0
  6
CONTINUOUS
 62
     3
100
AcDbLine
 10
29.332733
 20
0.806412
 30
0.0
 11
29.332733
 21
0.0
 31
0.0
  0
LINE
  5
CB
100
AcDbEntity
  8
0
  6
CONTINUOUS
 62
     3
100
AcDbLine
 10
29.332733
 20
0.0
 30
0.0
 11
23.687958
 21
0.0
 31
0.0
  0
LINE
  5
CC
100
AcDbEntity
  8
0
  6
CONTINUOUS
 62
     3
100
AcDbLine
 10
23.687958
 20
0.0
 30
0.0
 11
23.687958
 21
0.806412
 31
0.0
  0
LINE
  5
CD
100
AcDbEntity
  8
0
  6
CONTINUOUS
 62
     3
100
AcDbLine
 10
23.687958
 20
0.806412
 30
0.0
 11
25.955917
 21
0.806412
 31
0.0
  0
LINE
  5
CE
100
AcDbEntity
  8
0
  6
CONTINUOUS
 62
     3
100
AcDbLine
 10
25.955917
 20
0.806412
 30
0.0
 11
25.955917
 21
3.729599
 31
0.0
  0
LINE
  5
CF
100
AcDbEntity
  8
0
  6
CONTINUOUS
 62
     3
100
AcDbLine
 10
25.955917
 20
3.729599
 30
0.0
 11
23.889557
 21
3.729599
 31
0.0
  0
LINE
  5
D0
100
AcDbEntity
  8
0
  6
CONTINUOUS
 62
     3
100
AcDbLine
 10
29.433624
 20
3.830399
 30
0.0
 11
29.433624
 21
3.366714
 31
0.0
  0
LINE
  5
D1
100
AcDbEntity
  8
0
  6
CONTINUOUS
 62
     3
100
AcDbLine
 10
29.433624
 20
3.830399
 30
0.0
 11
30.309311
 21
3.830399
 31
0.0
  0
LINE
  5
D2
100
AcDbEntity
  8
0
  6
CONTINUOUS
 62
     3
100
AcDbLine
 10
30.309311
 20
3.830399
 30
0.0
 11
29.836823
 21
4.435196
 31
0.0
  0
LINE
  5
D3
100
AcDbEntity
  8
0
  6
CONTINUOUS
 62
     3
100
AcDbLine
 10
29.836823
 20
4.435196
 30
0.0
 11
30.732193
 21
4.435196
 31
0.0
  0
LINE
  5
D4
100
AcDbEntity
  8
0
  6
CONTINUOUS
 62
     3
100
AcDbLine
 10
30.732193
 20
4.435196
 30
0.0
 11
31.204681
 21
3.830399
 31
0.0
  0
LINE
  5
D5
100
AcDbEntity
  8
0
  6
CONTINUOUS
 62
     3
100
AcDbLine
 10
31.204681
 20
3.830399
 30
0.0
 11
31.399307
 21
3.830399
 31
0.0
  0
LINE
  5
D6
100
AcDbEntity
  8
0
  6
CONTINUOUS
 62
     3
100
AcDbLine
 10
31.399307
 20
3.830399
 30
0.0
 11
31.399307
 21
4.435196
 31
0.0
  0
LINE
  5
D7
100
AcDbEntity
  8
0
  6
CONTINUOUS
 62
     3
100
AcDbLine
 10
31.399307
 20
4.435196
 30
0.0
 11
32.104767
 21
4.435196
 31
0.0
  0
LINE
  5
D8
100
AcDbEntity
  8
0
  6
CONTINUOUS
 62
     3
100
AcDbLine
 10
32.104767
 20
4.435196
 30
0.0
 11
32.104767
 21
3.830399
 31
0.0
  0
LINE
  5
D9
100
AcDbEntity
  8
0
  6
CONTINUOUS
 62
     3
100
AcDbLine
 10
32.104767
 20
3.830399
 30
0.0
 11
32.407257
 21
3.830399
 31
0.0
  0
LINE
  5
DA
100
AcDbEntity
  8
0
  6
CONTINUOUS
 62
     3
100
AcDbLine
 10
32.407257
 20
3.830399
 30
0.0
 11
32.407257
 21
4.435196
 31
0.0
  0
LINE
  5
DB
100
AcDbEntity
  8
0
  6
CONTINUOUS
 62
     3
100
AcDbLine
 10
32.407257
 20
4.435196
 30
0.0
 11
33.112732
 21
4.435196
 31
0.0
  0
LINE
  5
DC
100
AcDbEntity
  8
0
  6
CONTINUOUS
 62
     3
100
AcDbLine
 10
33.112732
 20
4.435196
 30
0.0
 11
33.112732
 21
3.830399
 31
0.0
  0
LINE
  5
DD
100
AcDbEntity
  8
0
  6
CONTINUOUS
 62
     3
100
AcDbLine
 10
33.112732
 20
3.830399
 30
0.0
 11
33.307358
 21
3.830399
 31
0.0
  0
LINE
  5
DE
100
AcDbEntity
  8
0
  6
CONTINUOUS
 62
     3
100
AcDbLine
 10
33.307358
 20
3.830399
 30
0.0
 11
33.779846
 21
4.435196
 31
0.0
  0
LINE
  5
DF
100
AcDbEntity
  8
0
  6
CONTINUOUS
 62
     3
100
AcDbLine
 10
33.779846
 20
4.435196
 30
0.0
 11
34.675217
 21
4.435196
 31
0.0
  0
LINE
  5
E0
100
AcDbEntity
  8
0
  6
CONTINUOUS
 62
     3
100
AcDbLine
 10
34.675217
 20
4.435196
 30
0.0
 11
34.202728
 21
3.830399
 31
0.0
  0
LINE
  5
E1
100
AcDbEntity
  8
0
  6
CONTINUOUS
 62
     3
100
AcDbLine
 10
34.202728
 20
3.830399
 30
0.0
 11
35.0784
 21
3.830399
 31
0.0
  0
LINE
  5
E2
100
AcDbEntity
  8
0
  6
CONTINUOUS
 62
     3
100
AcDbLine
 10
35.0784
 20
3.830399
 30
0.0
 11
35.0784
 21
3.366714
 31
0.0
  0
LINE
  5
E3
100
AcDbEntity
  8
0
  6
CONTINUOUS
 62
     3
100
AcDbLine
 10
35.0784
 20
3.366714
 30
0.0
 11
34.016098
 21
3.366714
 31
0.0
  0
LINE
  5
E4
100
AcDbEntity
  8
0
  6
CONTINUOUS
 62
     3
100
AcDbLine
 10
34.016098
 20
3.366714
 30
0.0
 11
33.832764
 21
2.862732
 31
0.0
  0
LINE
  5
E5
100
AcDbEntity
  8
0
  6
CONTINUOUS
 62
     3
100
AcDbLine
 10
33.832764
 20
2.862732
 30
0.0
 11
35.0784
 21
2.862732
 31
0.0
  0
LINE
  5
E6
100
AcDbEntity
  8
0
  6
CONTINUOUS
 62
     3
100
AcDbLine
 10
35.0784
 20
2.862732
 30
0.0
 11
35.0784
 21
2.399048
 31
0.0
  0
LINE
  5
E7
100
AcDbEntity
  8
0
  6
CONTINUOUS
 62
     3
100
AcDbLine
 10
35.0784
 20
2.399048
 30
0.0
 11
32.759995
 21
2.399048
 31
0.0
  0
LINE
  5
E8
100
AcDbEntity
  8
0
  6
CONTINUOUS
 62
     3
100
AcDbLine
 10
32.759995
 20
2.399048
 30
0.0
 11
32.759995
 21
2.167206
 31
0.0
  0
LINE
  5
E9
100
AcDbEntity
  8
0
  6
CONTINUOUS
 62
     3
100
AcDbLine
 10
32.759995
 20
2.167206
 30
0.0
 11
35.0784
 21
2.167206
 31
0.0
  0
LINE
  5
EA
100
AcDbEntity
  8
0
  6
CONTINUOUS
 62
     3
100
AcDbLine
 10
35.0784
 20
2.167206
 30
0.0
 11
35.0784
 21
1.703522
 31
0.0
  0
LINE
  5
EB
100
AcDbEntity
  8
0
  6
CONTINUOUS
 62
     3
100
AcDbLine
 10
35.0784
 20
1.703522
 30
0.0
 11
32.759995
 21
1.703522
 31
0.0
  0
LINE
  5
EC
100
AcDbEntity
  8
0
  6
CONTINUOUS
 62
     3
100
AcDbLine
 10
32.759995
 20
1.703522
 30
0.0
 11
32.759995
 21
1.47168
 31
0.0
  0
LINE
  5
ED
100
AcDbEntity
  8
0
  6
CONTINUOUS
 62
     3
100
AcDbLine
 10
32.759995
 20
1.47168
 30
0.0
 11
35.0784
 21
1.47168
 31
0.0
  0
LINE
  5
EE
100
AcDbEntity
  8
0
  6
CONTINUOUS
 62
     3
100
AcDbLine
 10
35.0784
 20
1.47168
 30
0.0
 11
35.0784
 21
1.007996
 31
0.0
  0
LINE
  5
EF
100
AcDbEntity
  8
0
  6
CONTINUOUS
 62
     3
100
AcDbLine
 10
35.0784
 20
1.007996
 30
0.0
 11
33.962784
 21
1.007996
 31
0.0
  0
LINE
  5
F0
100
AcDbEntity
  8
0
  6
CONTINUOUS
 62
     3
100
AcDbLine
 10
33.962784
 20
1.007996
 30
0.0
 11
35.0784
 21
0.0
 31
0.0
  0
LINE
  5
F1
100
AcDbEntity
  8
0
  6
CONTINUOUS
 62
     3
100
AcDbLine
 10
35.0784
 20
0.0
 30
0.0
 11
33.875626
 21
0.0
 31
0.0
  0
LINE
  5
F2
100
AcDbEntity
  8
0
  6
CONTINUOUS
 62
     3
100
AcDbLine
 10
33.875626
 20
0.0
 30
0.0
 11
32.759995
 21
1.007996
 31
0.0
  0
LINE
  5
F3
100
AcDbEntity
  8
0
  6
CONTINUOUS
 62
     3
100
AcDbLine
 10
32.759995
 20
1.007996
 30
0.0
 11
32.759995
 21
0.0
 31
0.0
  0
LINE
  5
F4
100
AcDbEntity
  8
0
  6
CONTINUOUS
 62
     3
100
AcDbLine
 10
32.759995
 20
0.0
 30
0.0
 11
31.752045
 21
0.0
 31
0.0
  0
LINE
  5
F5
100
AcDbEntity
  8
0
  6
CONTINUOUS
 62
     3
100
AcDbLine
 10
31.752045
 20
0.0
 30
0.0
 11
31.752045
 21
1.007996
 31
0.0
  0
LINE
  5
F6
100
AcDbEntity
  8
0
  6
CONTINUOUS
 62
     3
100
AcDbLine
 10
31.752045
 20
1.007996
 30
0.0
 11
30.636414
 21
0.0
 31
0.0
  0
LINE
  5
F7
100
AcDbEntity
  8
0
  6
CONTINUOUS
 62
     3
100
AcDbLine
 10
30.636414
 20
0.0
 30
0.0
 11
29.433624
 21
0.0
 31
0.0
  0
LINE
  5
F8
100
AcDbEntity
  8
0
  6
CONTINUOUS
 62
     3
100
AcDbLine
 10
29.433624
 20
0.0
 30
0.0
 11
30.549255
 21
1.007996
 31
0.0
  0
LINE
  5
F9
100
AcDbEntity
  8
0
  6
CONTINUOUS
 62
     3
100
AcDbLine
 10
30.549255
 20
1.007996
 30
0.0
 11
29.433624
 21
1.007996
 31
0.0
  0
LINE
  5
FA
100
AcDbEntity
  8
0
  6
CONTINUOUS
 62
     3
100
AcDbLine
 10
29.433624
 20
1.007996
 30
0.0
 11
29.433624
 21
1.47168
 31
0.0
  0
LINE
  5
FB
100
AcDbEntity
  8
0
  6
CONTINUOUS
 62
     3
100
AcDbLine
 10
29.433624
 20
1.47168
 30
0.0
 11
31.752045
 21
1.47168
 31
0.0
  0
LINE
  5
FC
100
AcDbEntity
  8
0
  6
CONTINUOUS
 62
     3
100
AcDbLine
 10
31.752045
 20
1.47168
 30
0.0
 11
31.752045
 21
1.703522
 31
0.0
  0
LINE
  5
FD
100
AcDbEntity
  8
0
  6
CONTINUOUS
 62
     3
100
AcDbLine
 10
31.752045
 20
1.703522
 30
0.0
 11
29.433624
 21
1.703522
 31
0.0
  0
LINE
  5
FE
100
AcDbEntity
  8
0
  6
CONTINUOUS
 62
     3
100
AcDbLine
 10
29.433624
 20
1.703522
 30
0.0
 11
29.433624
 21
2.167206
 31
0.0
  0
LINE
  5
FF
100
AcDbEntity
  8
0
  6
CONTINUOUS
 62
     3
100
AcDbLine
 10
29.433624
 20
2.167206
 30
0.0
 11
31.752045
 21
2.167206
 31
0.0
  0
LINE
  5
100
100
AcDbEntity
  8
0
  6
CONTINUOUS
 62
     3
100
AcDbLine
 10
31.752045
 20
2.167206
 30
0.0
 11
31.752045
 21
2.399048
 31
0.0
  0
LINE
  5
101
100
AcDbEntity
  8
0
  6
CONTINUOUS
 62
     3
100
AcDbLine
 10
31.752045
 20
2.399048
 30
0.0
 11
29.433624
 21
2.399048
 31
0.0
  0
LINE
  5
102
100
AcDbEntity
  8
0
  6
CONTINUOUS
 62
     3
100
AcDbLine
 10
29.433624
 20
2.399048
 30
0.0
 11
29.433624
 21
2.862732
 31
0.0
  0
LINE
  5
103
100
AcDbEntity
  8
0
  6
CONTINUOUS
 62
     3
100
AcDbLine
 10
29.433624
 20
2.862732
 30
0.0
 11
30.679276
 21
2.862732
 31
0.0
  0
LINE
  5
104
100
AcDbEntity
  8
0
  6
CONTINUOUS
 62
     3
100
AcDbLine
 10
30.679276
 20
2.862732
 30
0.0
 11
30.495941
 21
3.366714
 31
0.0
  0
LINE
  5
105
100
AcDbEntity
  8
0
  6
CONTINUOUS
 62
     3
100
AcDbLine
 10
30.495941
 20
3.366714
 30
0.0
 11
29.433624
 21
3.366714
 31
0.0
  0
LINE
  5
106
100
AcDbEntity
  8
0
  6
CONTINUOUS
 62
     3
100
AcDbLine
 10
31.568497
 20
3.366714
 30
0.0
 11
32.943542
 21
3.366714
 31
0.0
  0
LINE
  5
107
100
AcDbEntity
  8
0
  6
CONTINUOUS
 62
     3
100
AcDbLine
 10
32.943542
 20
3.366714
 30
0.0
 11
32.759995
 21
2.862732
 31
0.0
  0
LINE
  5
108
100
AcDbEntity
  8
0
  6
CONTINUOUS
 62
     3
100
AcDbLine
 10
32.759995
 20
2.862732
 30
0.0
 11
31.752045
 21
2.862732
 31
0.0
  0
LINE
  5
109
100
AcDbEntity
  8
0
  6
CONTINUOUS
 62
     3
100
AcDbLine
 10
31.752045
 20
2.862732
 30
0.0
 11
31.568497
 21
3.366714
 31
0.0
  0
LINE
  5
10A
100
AcDbEntity
  8
0
  6
CONTINUOUS
 62
     3
100
AcDbLine
 10
37.825638
 20
4.435196
 30
0.0
 11
37.498947
 21
3.124802
 31
0.0
  0
LINE
  5
10B
100
AcDbEntity
  8
0
  6
CONTINUOUS
 62
     3
100
AcDbLine
 10
37.825638
 20
4.435196
 30
0.0
 11
38.656815
 21
4.435196
 31
0.0
  0
LINE
  5
10C
100
AcDbEntity
  8
0
  6
CONTINUOUS
 62
     3
100
AcDbLine
 10
38.656815
 20
4.435196
 30
0.0
 11
38.531097
 21
3.931198
 31
0.0
  0
LINE
  5
10D
100
AcDbEntity
  8
0
  6
CONTINUOUS
 62
     3
100
AcDbLine
 10
38.531097
 20
3.931198
 30
0.0
 11
38.858414
 21
3.931198
 31
0.0
  0
LINE
  5
10E
100
AcDbEntity
  8
0
  6
CONTINUOUS
 62
     3
100
AcDbLine
 10
38.858414
 20
3.931198
 30
0.0
 11
38.858414
 21
4.435196
 31
0.0
  0
LINE
  5
10F
100
AcDbEntity
  8
0
  6
CONTINUOUS
 62
     3
100
AcDbLine
 10
38.858414
 20
4.435196
 30
0.0
 11
39.765671
 21
4.435196
 31
0.0
  0
LINE
  5
110
100
AcDbEntity
  8
0
  6
CONTINUOUS
 62
     3
100
AcDbLine
 10
39.765671
 20
4.435196
 30
0.0
 11
39.765671
 21
3.931198
 31
0.0
  0
LINE
  5
111
100
AcDbEntity
  8
0
  6
CONTINUOUS
 62
     3
100
AcDbLine
 10
39.765671
 20
3.931198
 30
0.0
 11
40.924774
 21
3.931198
 31
0.0
  0
LINE
  5
112
100
AcDbEntity
  8
0
  6
CONTINUOUS
 62
     3
100
AcDbLine
 10
40.924774
 20
3.931198
 30
0.0
 11
40.924774
 21
3.4272
 31
0.0
  0
LINE
  5
113
100
AcDbEntity
  8
0
  6
CONTINUOUS
 62
     3
100
AcDbLine
 10
39.765671
 20
3.4272
 30
0.0
 11
40.924774
 21
3.4272
 31
0.0
  0
LINE
  5
114
100
AcDbEntity
  8
0
  6
CONTINUOUS
 62
     3
100
AcDbLine
 10
39.765671
 20
3.4272
 30
0.0
 11
39.765671
 21
2.923203
 31
0.0
  0
LINE
  5
115
100
AcDbEntity
  8
0
  6
CONTINUOUS
 62
     3
100
AcDbLine
 10
39.765671
 20
2.923203
 30
0.0
 11
41.025665
 21
2.923203
 31
0.0
  0
LINE
  5
116
100
AcDbEntity
  8
0
  6
CONTINUOUS
 62
     3
100
AcDbLine
 10
41.025665
 20
2.923203
 30
0.0
 11
41.025665
 21
2.419205
 31
0.0
  0
LINE
  5
117
100
AcDbEntity
  8
0
  6
CONTINUOUS
 62
     3
100
AcDbLine
 10
41.025665
 20
2.419205
 30
0.0
 11
40.585159
 21
2.419205
 31
0.0
  0
LINE
  5
118
100
AcDbEntity
  8
0
  6
CONTINUOUS
 62
     3
100
AcDbLine
 10
40.585159
 20
2.419205
 30
0.0
 11
41.025665
 21
0.0
 31
0.0
  0
LINE
  5
119
100
AcDbEntity
  8
0
  6
CONTINUOUS
 62
     3
100
AcDbLine
 10
41.025665
 20
0.0
 30
0.0
 11
40.205978
 21
0.0
 31
0.0
  0
LINE
  5
11A
100
AcDbEntity
  8
0
  6
CONTINUOUS
 62
     3
100
AcDbLine
 10
40.205978
 20
0.0
 30
0.0
 11
39.765671
 21
2.419174
 31
0.0
  0
LINE
  5
11B
100
AcDbEntity
  8
0
  6
CONTINUOUS
 62
     3
100
AcDbLine
 10
39.765671
 20
2.419174
 30
0.0
 11
39.765671
 21
0.0
 31
0.0
  0
LINE
  5
11C
100
AcDbEntity
  8
0
  6
CONTINUOUS
 62
     3
100
AcDbLine
 10
39.765671
 20
0.0
 30
0.0
 11
38.858414
 21
0.0
 31
0.0
  0
LINE
  5
11D
100
AcDbEntity
  8
0
  6
CONTINUOUS
 62
     3
100
AcDbLine
 10
38.858414
 20
0.0
 30
0.0
 11
38.858414
 21
2.419205
 31
0.0
  0
LINE
  5
11E
100
AcDbEntity
  8
0
  6
CONTINUOUS
 62
     3
100
AcDbLine
 10
38.858414
 20
2.419205
 30
0.0
 11
38.418106
 21
0.0
 31
0.0
  0
LINE
  5
11F
100
AcDbEntity
  8
0
  6
CONTINUOUS
 62
     3
100
AcDbLine
 10
38.418106
 20
0.0
 30
0.0
 11
37.598404
 21
0.0
 31
0.0
  0
LINE
  5
120
100
AcDbEntity
  8
0
  6
CONTINUOUS
 62
     3
100
AcDbLine
 10
37.598404
 20
0.0
 30
0.0
 11
38.038712
 21
2.419205
 31
0.0
  0
LINE
  5
121
100
AcDbEntity
  8
0
  6
CONTINUOUS
 62
     3
100
AcDbLine
 10
38.038712
 20
2.419205
 30
0.0
 11
37.598404
 21
2.419205
 31
0.0
  0
LINE
  5
122
100
AcDbEntity
  8
0
  6
CONTINUOUS
 62
     3
100
AcDbLine
 10
37.598404
 20
2.419205
 30
0.0
 11
37.598404
 21
2.923203
 31
0.0
  0
LINE
  5
123
100
AcDbEntity
  8
0
  6
CONTINUOUS
 62
     3
100
AcDbLine
 10
37.598404
 20
2.923203
 30
0.0
 11
38.858414
 21
2.923203
 31
0.0
  0
LINE
  5
124
100
AcDbEntity
  8
0
  6
CONTINUOUS
 62
     3
100
AcDbLine
 10
38.858414
 20
2.923203
 30
0.0
 11
38.858414
 21
3.4272
 31
0.0
  0
LINE
  5
125
100
AcDbEntity
  8
0
  6
CONTINUOUS
 62
     3
100
AcDbLine
 10
38.858414
 20
3.4272
 30
0.0
 11
38.405396
 21
3.4272
 31
0.0
  0
LINE
  5
126
100
AcDbEntity
  8
0
  6
CONTINUOUS
 62
     3
100
AcDbLine
 10
38.405396
 20
3.4272
 30
0.0
 11
38.330124
 21
3.124802
 31
0.0
  0
LINE
  5
127
100
AcDbEntity
  8
0
  6
CONTINUOUS
 62
     3
100
AcDbLine
 10
38.330124
 20
3.124802
 30
0.0
 11
37.498947
 21
3.124802
 31
0.0
  0
LINE
  5
128
100
AcDbEntity
  8
0
  6
CONTINUOUS
 62
     3
100
AcDbLine
 10
35.279999
 20
3.931198
 30
0.0
 11
35.279999
 21
3.4272
 31
0.0
  0
LINE
  5
129
100
AcDbEntity
  8
0
  6
CONTINUOUS
 62
     3
100
AcDbLine
 10
35.279999
 20
3.931198
 30
0.0
 11
36.287964
 21
3.931198
 31
0.0
  0
LINE
  5
12A
100
AcDbEntity
  8
0
  6
CONTINUOUS
 62
     3
100
AcDbLine
 10
36.287964
 20
3.931198
 30
0.0
 11
36.287964
 21
4.435196
 31
0.0
  0
LINE
  5
12B
100
AcDbEntity
  8
0
  6
CONTINUOUS
 62
     3
100
AcDbLine
 10
36.287964
 20
4.435196
 30
0.0
 11
37.195221
 21
4.435196
 31
0.0
  0
LINE
  5
12C
100
AcDbEntity
  8
0
  6
CONTINUOUS
 62
     3
100
AcDbLine
 10
37.195221
 20
4.435196
 30
0.0
 11
37.195221
 21
3.931198
 31
0.0
  0
LINE
  5
12D
100
AcDbEntity
  8
0
  6
CONTINUOUS
 62
     3
100
AcDbLine
 10
37.195221
 20
3.931198
 30
0.0
 11
37.497513
 21
3.931198
 31
0.0
  0
LINE
  5
12E
100
AcDbEntity
  8
0
  6
CONTINUOUS
 62
     3
100
AcDbLine
 10
37.497513
 20
3.931198
 30
0.0
 11
37.497513
 21
3.4272
 31
0.0
  0
LINE
  5
12F
100
AcDbEntity
  8
0
  6
CONTINUOUS
 62
     3
100
AcDbLine
 10
37.497513
 20
3.4272
 30
0.0
 11
37.195221
 21
3.4272
 31
0.0
  0
LINE
  5
130
100
AcDbEntity
  8
0
  6
CONTINUOUS
 62
     3
100
AcDbLine
 10
37.195221
 20
3.4272
 30
0.0
 11
37.497513
 21
3.011002
 31
0.0
  0
LINE
  5
131
100
AcDbEntity
  8
0
  6
CONTINUOUS
 62
     3
100
AcDbLine
 10
37.497513
 20
3.011002
 30
0.0
 11
37.497513
 21
1.982071
 31
0.0
  0
LINE
  5
132
100
AcDbEntity
  8
0
  6
CONTINUOUS
 62
     3
100
AcDbLine
 10
37.497513
 20
1.982071
 30
0.0
 11
37.195221
 21
2.398285
 31
0.0
  0
LINE
  5
133
100
AcDbEntity
  8
0
  6
CONTINUOUS
 62
     3
100
AcDbLine
 10
37.195221
 20
2.398285
 30
0.0
 11
37.195221
 21
0.0
 31
0.0
  0
LINE
  5
134
100
AcDbEntity
  8
0
  6
CONTINUOUS
 62
     3
100
AcDbLine
 10
37.195221
 20
0.0
 30
0.0
 11
36.287964
 21
0.0
 31
0.0
  0
LINE
  5
135
100
AcDbEntity
  8
0
  6
CONTINUOUS
 62
     3
100
AcDbLine
 10
36.287964
 20
0.0
 30
0.0
 11
36.287964
 21
3.4272
 31
0.0
  0
LINE
  5
136
100
AcDbEntity
  8
0
  6
CONTINUOUS
 62
     3
100
AcDbLine
 10
36.248383
 20
3.4272
 30
0.0
 11
35.888062
 21
0.0
 31
0.0
  0
LINE
  5
137
100
AcDbEntity
  8
0
  6
CONTINUOUS
 62
     3
100
AcDbLine
 10
35.888062
 20
0.0
 30
0.0
 11
35.279999
 21
0.0
 31
0.0
  0
LINE
  5
138
100
AcDbEntity
  8
0
  6
CONTINUOUS
 62
     3
100
AcDbLine
 10
35.279999
 20
0.0
 30
0.0
 11
35.64032
 21
3.4272
 31
0.0
  0
LINE
  5
139
100
AcDbEntity
  8
0
  6
CONTINUOUS
 62
     3
100
AcDbLine
 10
35.64032
 20
3.4272
 30
0.0
 11
35.279999
 21
3.4272
 31
0.0
  0
LINE
  5
13A
100
AcDbEntity
  8
0
  6
CONTINUOUS
 62
     3
100
AcDbLine
 10
41.529556
 20
2.822403
 30
0.0
 11
41.529556
 21
2.217606
 31
0.0
  0
LINE
  5
13B
100
AcDbEntity
  8
0
  6
CONTINUOUS
 62
     3
100
AcDbLine
 10
41.529556
 20
2.822403
 30
0.0
 11
44.553635
 21
2.822403
 31
0.0
  0
LINE
  5
13C
100
AcDbEntity
  8
0
  6
CONTINUOUS
 62
     3
100
AcDbLine
 10
44.553635
 20
2.822403
 30
0.0
 11
44.553635
 21
2.217606
 31
0.0
  0
LINE
  5
13D
100
AcDbEntity
  8
0
  6
CONTINUOUS
 62
     3
100
AcDbLine
 10
44.553635
 20
2.217606
 30
0.0
 11
43.595917
 21
2.217606
 31
0.0
  0
LINE
  5
13E
100
AcDbEntity
  8
0
  6
CONTINUOUS
 62
     3
100
AcDbLine
 10
43.595917
 20
2.217606
 30
0.0
 11
43.595917
 21
1.377411
 31
0.0
  0
LINE
  5
13F
100
AcDbEntity
  8
0
  6
CONTINUOUS
 62
     3
100
AcDbLine
 10
43.595917
 20
1.377411
 30
0.0
 11
44.60408
 21
1.59166
 31
0.0
  0
LINE
  5
140
100
AcDbEntity
  8
0
  6
CONTINUOUS
 62
     3
100
AcDbLine
 10
44.60408
 20
1.59166
 30
0.0
 11
44.60408
 21
0.6642
 31
0.0
  0
LINE
  5
141
100
AcDbEntity
  8
0
  6
CONTINUOUS
 62
     3
100
AcDbLine
 10
44.60408
 20
0.6642
 30
0.0
 11
41.479095
 21
0.0
 31
0.0
  0
LINE
  5
142
100
AcDbEntity
  8
0
  6
CONTINUOUS
 62
     3
100
AcDbLine
 10
41.479095
 20
0.0
 30
0.0
 11
41.479095
 21
0.92746
 31
0.0
  0
LINE
  5
143
100
AcDbEntity
  8
0
  6
CONTINUOUS
 62
     3
100
AcDbLine
 10
41.479095
 20
0.92746
 30
0.0
 11
42.487259
 21
1.141724
 31
0.0
  0
LINE
  5
144
100
AcDbEntity
  8
0
  6
CONTINUOUS
 62
     3
100
AcDbLine
 10
42.487259
 20
1.141724
 30
0.0
 11
42.487259
 21
2.217606
 31
0.0
  0
LINE
  5
145
100
AcDbEntity
  8
0
  6
CONTINUOUS
 62
     3
100
AcDbLine
 10
42.487259
 20
2.217606
 30
0.0
 11
41.529556
 21
2.217606
 31
0.0
  0
LINE
  5
146
100
AcDbEntity
  8
0
  6
CONTINUOUS
 62
     3
100
AcDbLine
 10
41.227264
 20
4.031998
 30
0.0
 11
41.227264
 21
3.4272
 31
0.0
  0
LINE
  5
147
100
AcDbEntity
  8
0
  6
CONTINUOUS
 62
     3
100
AcDbLine
 10
41.227264
 20
4.031998
 30
0.0
 11
44.224487
 21
4.031998
 31
0.0
  0
LINE
  5
148
100
AcDbEntity
  8
0
  6
CONTINUOUS
 62
     3
100
AcDbLine
 10
44.224487
 20
4.031998
 30
0.0
 11
44.07785
 21
4.435196
 31
0.0
  0
LINE
  5
149
100
AcDbEntity
  8
0
  6
CONTINUOUS
 62
     3
100
AcDbLine
 10
44.07785
 20
4.435196
 30
0.0
 11
45.25766
 21
4.435196
 31
0.0
  0
LINE
  5
14A
100
AcDbEntity
  8
0
  6
CONTINUOUS
 62
     3
100
AcDbLine
 10
45.25766
 20
4.435196
 30
0.0
 11
45.404495
 21
4.031998
 31
0.0
  0
LINE
  5
14B
100
AcDbEntity
  8
0
  6
CONTINUOUS
 62
     3
100
AcDbLine
 10
45.404495
 20
4.031998
 30
0.0
 11
45.662491
 21
4.031998
 31
0.0
  0
LINE
  5
14C
100
AcDbEntity
  8
0
  6
CONTINUOUS
 62
     3
100
AcDbLine
 10
45.662491
 20
4.031998
 30
0.0
 11
45.662491
 21
4.435196
 31
0.0
  0
LINE
  5
14D
100
AcDbEntity
  8
0
  6
CONTINUOUS
 62
     3
100
AcDbLine
 10
45.662491
 20
4.435196
 30
0.0
 11
46.56955
 21
4.435196
 31
0.0
  0
LINE
  5
14E
100
AcDbEntity
  8
0
  6
CONTINUOUS
 62
     3
100
AcDbLine
 10
46.56955
 20
4.435196
 30
0.0
 11
46.56955
 21
4.031998
 31
0.0
  0
LINE
  5
14F
100
AcDbEntity
  8
0
  6
CONTINUOUS
 62
     3
100
AcDbLine
 10
46.56955
 20
4.031998
 30
0.0
 11
46.87204
 21
4.031998
 31
0.0
  0
LINE
  5
150
100
AcDbEntity
  8
0
  6
CONTINUOUS
 62
     3
100
AcDbLine
 10
46.87204
 20
4.031998
 30
0.0
 11
46.87204
 21
3.4272
 31
0.0
  0
LINE
  5
151
100
AcDbEntity
  8
0
  6
CONTINUOUS
 62
     3
100
AcDbLine
 10
46.87204
 20
3.4272
 30
0.0
 11
45.624542
 21
3.4272
 31
0.0
  0
LINE
  5
152
100
AcDbEntity
  8
0
  6
CONTINUOUS
 62
     3
100
AcDbLine
 10
45.624542
 20
3.4272
 30
0.0
 11
46.87204
 21
0.0
 31
0.0
  0
LINE
  5
153
100
AcDbEntity
  8
0
  6
CONTINUOUS
 62
     3
100
AcDbLine
 10
46.87204
 20
0.0
 30
0.0
 11
45.692017
 21
0.0
 31
0.0
  0
LINE
  5
154
100
AcDbEntity
  8
0
  6
CONTINUOUS
 62
     3
100
AcDbLine
 10
45.692017
 20
0.0
 30
0.0
 11
44.444733
 21
3.4272
 31
0.0
  0
LINE
  5
155
100
AcDbEntity
  8
0
  6
CONTINUOUS
 62
     3
100
AcDbLine
 10
44.444733
 20
3.4272
 30
0.0
 11
41.227264
 21
3.4272
 31
0.0
  0
LINE
  5
156
100
AcDbEntity
  8
0
  6
CONTINUOUS
 62
     3
100
AcDbLine
 10
47.073639
 20
3.574783
 30
0.0
 11
47.073639
 21
2.936996
 31
0.0
  0
LINE
  5
157
100
AcDbEntity
  8
0
  6
CONTINUOUS
 62
     3
100
AcDbLine
 10
47.073639
 20
3.574783
 30
0.0
 11
49.946365
 21
4.535995
 31
0.0
  0
LINE
  5
158
100
AcDbEntity
  8
0
  6
CONTINUOUS
 62
     3
100
AcDbLine
 10
49.946365
 20
4.535995
 30
0.0
 11
52.819107
 21
3.574753
 31
0.0
  0
LINE
  5
159
100
AcDbEntity
  8
0
  6
CONTINUOUS
 62
     3
100
AcDbLine
 10
52.819107
 20
3.574753
 30
0.0
 11
52.819107
 21
2.936996
 31
0.0
  0
LINE
  5
15A
100
AcDbEntity
  8
0
  6
CONTINUOUS
 62
     3
100
AcDbLine
 10
52.819107
 20
2.936996
 30
0.0
 11
51.962494
 21
3.223679
 31
0.0
  0
LINE
  5
15B
100
AcDbEntity
  8
0
  6
CONTINUOUS
 62
     3
100
AcDbLine
 10
51.962494
 20
3.223679
 30
0.0
 11
51.962494
 21
2.721603
 31
0.0
  0
LINE
  5
15C
100
AcDbEntity
  8
0
  6
CONTINUOUS
 62
     3
100
AcDbLine
 10
51.962494
 20
2.721603
 30
0.0
 11
47.93045
 21
2.721603
 31
0.0
  0
LINE
  5
15D
100
AcDbEntity
  8
0
  6
CONTINUOUS
 62
     3
100
AcDbLine
 10
47.93045
 20
2.721603
 30
0.0
 11
47.93045
 21
3.223679
 31
0.0
  0
LINE
  5
15E
100
AcDbEntity
  8
0
  6
CONTINUOUS
 62
     3
100
AcDbLine
 10
47.93045
 20
3.223679
 30
0.0
 11
47.073639
 21
2.936996
 31
0.0
  0
LINE
  5
15F
100
AcDbEntity
  8
0
  6
CONTINUOUS
 62
     3
100
AcDbLine
 10
48.237457
 20
3.326401
 30
0.0
 11
49.946365
 21
3.898224
 31
0.0
  0
LINE
  5
160
100
AcDbEntity
  8
0
  6
CONTINUOUS
 62
     3
100
AcDbLine
 10
49.946365
 20
3.898224
 30
0.0
 11
51.655487
 21
3.326401
 31
0.0
  0
LINE
  5
161
100
AcDbEntity
  8
0
  6
CONTINUOUS
 62
     3
100
AcDbLine
 10
51.655487
 20
3.326401
 30
0.0
 11
48.237457
 21
3.326401
 31
0.0
  0
LINE
  5
162
100
AcDbEntity
  8
0
  6
CONTINUOUS
 62
     3
100
AcDbLine
 10
47.073639
 20
2.31839
 30
0.0
 11
47.073639
 21
1.713593
 31
0.0
  0
LINE
  5
163
100
AcDbEntity
  8
0
  6
CONTINUOUS
 62
     3
100
AcDbLine
 10
47.073639
 20
2.31839
 30
0.0
 11
52.819107
 21
2.31839
 31
0.0
  0
LINE
  5
164
100
AcDbEntity
  8
0
  6
CONTINUOUS
 62
     3
100
AcDbLine
 10
52.819107
 20
2.31839
 30
0.0
 11
52.819107
 21
1.713593
 31
0.0
  0
LINE
  5
165
100
AcDbEntity
  8
0
  6
CONTINUOUS
 62
     3
100
AcDbLine
 10
52.819107
 20
1.713593
 30
0.0
 11
52.020111
 21
1.713593
 31
0.0
  0
LINE
  5
166
100
AcDbEntity
  8
0
  6
CONTINUOUS
 62
     3
100
AcDbLine
 10
52.020111
 20
1.713593
 30
0.0
 11
52.819107
 21
0.0
 31
0.0
  0
LINE
  5
167
100
AcDbEntity
  8
0
  6
CONTINUOUS
 62
     3
100
AcDbLine
 10
52.819107
 20
0.0
 30
0.0
 11
47.073639
 21
0.0
 31
0.0
  0
LINE
  5
168
100
AcDbEntity
  8
0
  6
CONTINUOUS
 62
     3
100
AcDbLine
 10
47.073639
 20
0.0
 30
0.0
 11
47.87262
 21
1.713593
 31
0.0
  0
LINE
  5
169
100
AcDbEntity
  8
0
  6
CONTINUOUS
 62
     3
100
AcDbLine
 10
47.87262
 20
1.713593
 30
0.0
 11
47.073639
 21
1.713593
 31
0.0
  0
LINE
  5
16A
100
AcDbEntity
  8
0
  6
CONTINUOUS
 62
     3
100
AcDbLine
 10
48.984756
 20
1.713593
 30
0.0
 11
50.907974
 21
1.713593
 31
0.0
  0
LINE
  5
16B
100
AcDbEntity
  8
0
  6
CONTINUOUS
 62
     3
100
AcDbLine
 10
50.907974
 20
1.713593
 30
0.0
 11
51.424973
 21
0.604797
 31
0.0
  0
LINE
  5
16C
100
AcDbEntity
  8
0
  6
CONTINUOUS
 62
     3
100
AcDbLine
 10
51.424973
 20
0.604797
 30
0.0
 11
48.467758
 21
0.604797
 31
0.0
  0
LINE
  5
16D
100
AcDbEntity
  8
0
  6
CONTINUOUS
 62
     3
100
AcDbLine
 10
48.984756
 20
1.713593
 30
0.0
 11
48.467758
 21
0.604797
 31
0.0
  0
LINE
  5
16E
100
AcDbEntity
  8
0
  6
CONTINUOUS
 62
     3
100
AcDbLine
 10
55.742493
 20
3.326401
 30
0.0
 11
55.742493
 21
2.721603
 31
0.0
  0
LINE
  5
16F
100
AcDbEntity
  8
0
  6
CONTINUOUS
 62
     3
100
AcDbLine
 10
55.742493
 20
3.326401
 30
0.0
 11
56.649551
 21
3.326401
 31
0.0
  0
LINE
  5
170
100
AcDbEntity
  8
0
  6
CONTINUOUS
 62
     3
100
AcDbLine
 10
56.649551
 20
3.326401
 30
0.0
 11
56.649551
 21
4.435196
 31
0.0
  0
LINE
  5
171
100
AcDbEntity
  8
0
  6
CONTINUOUS
 62
     3
100
AcDbLine
 10
56.649551
 20
4.435196
 30
0.0
 11
57.657501
 21
4.435196
 31
0.0
  0
LINE
  5
172
100
AcDbEntity
  8
0
  6
CONTINUOUS
 62
     3
100
AcDbLine
 10
57.657501
 20
4.435196
 30
0.0
 11
57.657501
 21
3.326401
 31
0.0
  0
LINE
  5
173
100
AcDbEntity
  8
0
  6
CONTINUOUS
 62
     3
100
AcDbLine
 10
57.657501
 20
3.326401
 30
0.0
 11
58.564774
 21
3.326401
 31
0.0
  0
LINE
  5
174
100
AcDbEntity
  8
0
  6
CONTINUOUS
 62
     3
100
AcDbLine
 10
58.564774
 20
3.326401
 30
0.0
 11
58.564774
 21
2.721603
 31
0.0
  0
LINE
  5
175
100
AcDbEntity
  8
0
  6
CONTINUOUS
 62
     3
100
AcDbLine
 10
58.564774
 20
2.721603
 30
0.0
 11
57.657501
 21
2.721603
 31
0.0
  0
LINE
  5
176
100
AcDbEntity
  8
0
  6
CONTINUOUS
 62
     3
100
AcDbLine
 10
57.657501
 20
2.721603
 30
0.0
 11
57.657501
 21
0.604797
 31
0.0
  0
LINE
  5
177
100
AcDbEntity
  8
0
  6
CONTINUOUS
 62
     3
100
AcDbLine
 10
57.657501
 20
0.604797
 30
0.0
 11
58.665665
 21
0.604797
 31
0.0
  0
LINE
  5
178
100
AcDbEntity
  8
0
  6
CONTINUOUS
 62
     3
100
AcDbLine
 10
58.665665
 20
0.604797
 30
0.0
 11
58.665665
 21
0.0
 31
0.0
  0
LINE
  5
179
100
AcDbEntity
  8
0
  6
CONTINUOUS
 62
     3
100
AcDbLine
 10
58.665665
 20
0.0
 30
0.0
 11
55.339096
 21
0.0
 31
0.0
  0
LINE
  5
17A
100
AcDbEntity
  8
0
  6
CONTINUOUS
 62
     3
100
AcDbLine
 10
55.339096
 20
0.0
 30
0.0
 11
55.339096
 21
0.604797
 31
0.0
  0
LINE
  5
17B
100
AcDbEntity
  8
0
  6
CONTINUOUS
 62
     3
100
AcDbLine
 10
55.339096
 20
0.604797
 30
0.0
 11
56.649551
 21
0.604797
 31
0.0
  0
LINE
  5
17C
100
AcDbEntity
  8
0
  6
CONTINUOUS
 62
     3
100
AcDbLine
 10
56.649551
 20
0.604797
 30
0.0
 11
56.649551
 21
2.721603
 31
0.0
  0
LINE
  5
17D
100
AcDbEntity
  8
0
  6
CONTINUOUS
 62
     3
100
AcDbLine
 10
56.649551
 20
2.721603
 30
0.0
 11
55.742493
 21
2.721603
 31
0.0
  0
LINE
  5
17E
100
AcDbEntity
  8
0
  6
CONTINUOUS
 62
     3
100
AcDbLine
 10
53.020691
 20
4.031998
 30
0.0
 11
53.020691
 21
3.4272
 31
0.0
  0
LINE
  5
17F
100
AcDbEntity
  8
0
  6
CONTINUOUS
 62
     3
100
AcDbLine
 10
53.020691
 20
4.031998
 30
0.0
 11
53.927963
 21
4.031998
 31
0.0
  0
LINE
  5
180
100
AcDbEntity
  8
0
  6
CONTINUOUS
 62
     3
100
AcDbLine
 10
53.927963
 20
4.031998
 30
0.0
 11
53.927963
 21
4.435196
 31
0.0
  0
LINE
  5
181
100
AcDbEntity
  8
0
  6
CONTINUOUS
 62
     3
100
AcDbLine
 10
53.927963
 20
4.435196
 30
0.0
 11
54.935913
 21
4.435196
 31
0.0
  0
LINE
  5
182
100
AcDbEntity
  8
0
  6
CONTINUOUS
 62
     3
100
AcDbLine
 10
54.935913
 20
4.435196
 30
0.0
 11
54.935913
 21
4.031998
 31
0.0
  0
LINE
  5
183
100
AcDbEntity
  8
0
  6
CONTINUOUS
 62
     3
100
AcDbLine
 10
54.935913
 20
4.031998
 30
0.0
 11
55.843185
 21
4.031998
 31
0.0
  0
LINE
  5
184
100
AcDbEntity
  8
0
  6
CONTINUOUS
 62
     3
100
AcDbLine
 10
55.843185
 20
4.031998
 30
0.0
 11
54.802612
 21
2.545578
 31
0.0
  0
LINE
  5
185
100
AcDbEntity
  8
0
  6
CONTINUOUS
 62
     3
100
AcDbLine
 10
54.802612
 20
2.545578
 30
0.0
 11
55.742493
 21
1.887588
 31
0.0
  0
LINE
  5
186
100
AcDbEntity
  8
0
  6
CONTINUOUS
 62
     3
100
AcDbLine
 10
55.742493
 20
1.887588
 30
0.0
 11
55.742493
 21
0.780121
 31
0.0
  0
LINE
  5
187
100
AcDbEntity
  8
0
  6
CONTINUOUS
 62
     3
100
AcDbLine
 10
55.742493
 20
0.780121
 30
0.0
 11
54.935913
 21
1.344772
 31
0.0
  0
LINE
  5
188
100
AcDbEntity
  8
0
  6
CONTINUOUS
 62
     3
100
AcDbLine
 10
54.935913
 20
1.344772
 30
0.0
 11
54.935913
 21
0.0
 31
0.0
  0
LINE
  5
189
100
AcDbEntity
  8
0
  6
CONTINUOUS
 62
     3
100
AcDbLine
 10
54.935913
 20
0.0
 30
0.0
 11
53.927963
 21
0.0
 31
0.0
  0
LINE
  5
18A
100
AcDbEntity
  8
0
  6
CONTINUOUS
 62
     3
100
AcDbLine
 10
53.927963
 20
0.0
 30
0.0
 11
53.927963
 21
1.29599
 31
0.0
  0
LINE
  5
18B
100
AcDbEntity
  8
0
  6
CONTINUOUS
 62
     3
100
AcDbLine
 10
53.927963
 20
1.29599
 30
0.0
 11
53.020691
 21
0.0
 31
0.0
  0
LINE
  5
18C
100
AcDbEntity
  8
0
  6
CONTINUOUS
 62
     3
100
AcDbLine
 10
53.020691
 20
0.0
 30
0.0
 11
53.020691
 21
1.58194
 31
0.0
  0
LINE
  5
18D
100
AcDbEntity
  8
0
  6
CONTINUOUS
 62
     3
100
AcDbLine
 10
53.020691
 20
1.58194
 30
0.0
 11
54.312485
 21
3.4272
 31
0.0
  0
LINE
  5
18E
100
AcDbEntity
  8
0
  6
CONTINUOUS
 62
     3
100
AcDbLine
 10
54.312485
 20
3.4272
 30
0.0
 11
53.020691
 21
3.4272
 31
0.0
  0
ARC
  5
18F
100
AcDbEntity
  8
0
  6
CONTINUOUS
 62
     2
100
AcDbCircle
 10
8.816101
 20
2.620041
 30
0.0
 40
0.630012
100
AcDbArc
 50
310.768311
 51
335.998779
  0
LINE
  5
190
100
AcDbEntity
  8
0
  6
CONTINUOUS
 62
     2
100
AcDbLine
 10
9.540024
 20
2.696411
 30
0.0
 11
9.391968
 21
2.363907
 31
0.0
  0
LINE
  5
191
100
AcDbEntity
  8
0
  6
CONTINUOUS
 62
     2
100
AcDbLine
 10
7.798508
 20
3.074402
 30
0.0
 11
10.121841
 21
3.074402
 31
0.0
  0
ARC
  5
192
100
AcDbEntity
  8
0
  6
CONTINUOUS
 62
     2
100
AcDbCircle
 10
18.129929
 20
1.814407
 30
0.0
 40
1.562401
100
AcDbArc
 50
270.000031
 51
324.00116
  0
ARC
  5
193
100
AcDbEntity
  8
0
  6
CONTINUOUS
 62
     2
100
AcDbCircle
 10
18.129929
 20
1.814407
 30
0.0
 40
1.310401
100
AcDbArc
 50
270.000031
 51
324.00116
  0
ARC
  5
194
100
AcDbEntity
  8
0
  6
CONTINUOUS
 62
     2
100
AcDbCircle
 10
2.856567
 20
1.814407
 30
0.0
 40
1.562398
100
AcDbArc
 50
270.000031
 51
333.99855
  0
ARC
  5
195
100
AcDbEntity
  8
0
  6
CONTINUOUS
 62
     2
100
AcDbCircle
 10
2.77655
 20
1.814407
 30
0.0
 40
1.058399
100
AcDbArc
 50
270.000031
 51
333.99855
  0
ARC
  5
196
100
AcDbEntity
  8
0
  6
CONTINUOUS
 62
     2
100
AcDbCircle
 10
2.816559
 20
1.814407
 30
0.0
 40
1.310399
100
AcDbArc
 50
270.000031
 51
333.99855
  0
LINE
  5
197
100
AcDbEntity
  8
0
  6
CONTINUOUS
 62
     2
100
AcDbLine
 10
0.184082
 20
4.203213
 30
0.0
 11
2.638397
 21
4.203213
 31
0.0
  0
LINE
  5
198
100
AcDbEntity
  8
0
  6
CONTINUOUS
 62
     2
100
AcDbLine
 10
0.184082
 20
3.971214
 30
0.0
 11
2.638397
 21
3.971214
 31
0.0
  0
LINE
  5
199
100
AcDbEntity
  8
0
  6
CONTINUOUS
 62
     2
100
AcDbLine
 10
0.184082
 20
3.739231
 30
0.0
 11
2.638397
 21
3.739231
 31
0.0
  0
LINE
  5
19A
100
AcDbEntity
  8
0
  6
CONTINUOUS
 62
     2
100
AcDbLine
 10
0.184082
 20
3.013603
 30
0.0
 11
2.638397
 21
3.013603
 31
0.0
  0
LINE
  5
19B
100
AcDbEntity
  8
0
  6
CONTINUOUS
 62
     2
100
AcDbLine
 10
0.184082
 20
2.761589
 30
0.0
 11
2.638397
 21
2.761589
 31
0.0
  0
LINE
  5
19C
100
AcDbEntity
  8
0
  6
CONTINUOUS
 62
     2
100
AcDbLine
 10
0.184082
 20
2.529606
 30
0.0
 11
2.638397
 21
2.529606
 31
0.0
  0
LINE
  5
19D
100
AcDbEntity
  8
0
  6
CONTINUOUS
 62
     2
100
AcDbLine
 10
0.184082
 20
0.755997
 30
0.0
 11
2.77655
 21
0.755997
 31
0.0
  0
LINE
  5
19E
100
AcDbEntity
  8
0
  6
CONTINUOUS
 62
     2
100
AcDbLine
 10
0.184082
 20
0.503998
 30
0.0
 11
2.77655
 21
0.503998
 31
0.0
  0
LINE
  5
19F
100
AcDbEntity
  8
0
  6
CONTINUOUS
 62
     2
100
AcDbLine
 10
0.184082
 20
0.251999
 30
0.0
 11
2.77655
 21
0.251999
 31
0.0
  0
LINE
  5
1A0
100
AcDbEntity
  8
0
  6
CONTINUOUS
 62
     2
100
AcDbLine
 10
3.727707
 20
1.350403
 30
0.0
 11
4.610825
 21
3.161036
 31
0.0
  0
LINE
  5
1A1
100
AcDbEntity
  8
0
  6
CONTINUOUS
 62
     2
100
AcDbLine
 10
3.994125
 20
1.23996
 30
0.0
 11
4.931168
 21
3.161037
 31
0.0
  0
LINE
  5
1A2
100
AcDbEntity
  8
0
  6
CONTINUOUS
 62
     2
100
AcDbLine
 10
4.260529
 20
1.129425
 30
0.0
 11
5.251312
 21
3.161035
 31
0.0
  0
LINE
  5
1A3
100
AcDbEntity
  8
0
  6
CONTINUOUS
 62
     2
100
AcDbLine
 10
3.913635
 20
4.169598
 30
0.0
 11
4.351837
 21
4.169598
 31
0.0
  0
LINE
  5
1A4
100
AcDbEntity
  8
0
  6
CONTINUOUS
 62
     2
100
AcDbLine
 10
3.913635
 20
3.883999
 30
0.0
 11
4.351837
 21
3.883999
 31
0.0
  0
LINE
  5
1A5
100
AcDbEntity
  8
0
  6
CONTINUOUS
 62
     2
100
AcDbLine
 10
5.022491
 20
4.169598
 30
0.0
 11
5.460693
 21
4.169598
 31
0.0
  0
LINE
  5
1A6
100
AcDbEntity
  8
0
  6
CONTINUOUS
 62
     2
100
AcDbLine
 10
5.022491
 20
3.883999
 30
0.0
 11
5.460693
 21
3.883999
 31
0.0
  0
LINE
  5
1A7
100
AcDbEntity
  8
0
  6
CONTINUOUS
 62
     2
100
AcDbLine
 10
6.131348
 20
2.822418
 30
0.0
 11
7.328064
 21
2.822418
 31
0.0
  0
LINE
  5
1A8
100
AcDbEntity
  8
0
  6
CONTINUOUS
 62
     2
100
AcDbLine
 10
7.037537
 20
3.850268
 30
0.0
 11
7.160507
 21
3.074402
 31
0.0
  0
LINE
  5
1A9
100
AcDbEntity
  8
0
  6
CONTINUOUS
 62
     2
100
AcDbLine
 10
7.618805
 20
0.18173
 30
0.0
 11
7.244904
 21
2.541904
 31
0.0
  0
ARC
  5
1AA
100
AcDbEntity
  8
0
  6
CONTINUOUS
 62
     2
100
AcDbCircle
 10
8.796097
 20
2.620041
 30
0.0
 40
0.882012
100
AcDbArc
 50
272.671387
 51
335.998779
  0
ARC
  5
1AB
100
AcDbEntity
  8
0
  6
CONTINUOUS
 62
     2
100
AcDbCircle
 10
8.776093
 20
2.620041
 30
0.0
 40
1.134011
100
AcDbArc
 50
267.367432
 51
335.998779
  0
LINE
  5
1AC
100
AcDbEntity
  8
0
  6
CONTINUOUS
 62
     2
100
AcDbLine
 10
10.235168
 20
3.109053
 30
0.0
 11
9.812149
 21
2.158859
 31
0.0
  0
LINE
  5
1AD
100
AcDbEntity
  8
0
  6
CONTINUOUS
 62
     2
100
AcDbLine
 10
8.209061
 20
0.18173
 30
0.0
 11
7.822037
 21
2.624882
 31
0.0
  0
LINE
  5
1AE
100
AcDbEntity
  8
0
  6
CONTINUOUS
 62
     2
100
AcDbLine
 10
7.933929
 20
0.18173
 30
0.0
 11
7.352844
 21
3.850267
 31
0.0
  0
LINE
  5
1AF
100
AcDbEntity
  8
0
  6
CONTINUOUS
 62
     2
100
AcDbLine
 10
7.627975
 20
3.850267
 30
0.0
 11
7.739563
 21
3.145947
 31
0.0
  0
LINE
  5
1B0
100
AcDbEntity
  8
0
  6
CONTINUOUS
 62
     2
100
AcDbLine
 10
6.131348
 20
3.074402
 30
0.0
 11
6.96051
 21
3.074402
 31
0.0
  0
LINE
  5
1B1
100
AcDbEntity
  8
0
  6
CONTINUOUS
 62
     2
100
AcDbLine
 10
9.866989
 20
2.857039
 30
0.0
 11
9.602051
 21
2.261353
 31
0.0
  0
LINE
  5
1B2
100
AcDbEntity
  8
0
  6
CONTINUOUS
 62
     2
100
AcDbLine
 10
7.710739
 20
2.822418
 30
0.0
 11
9.63382
 21
2.822418
 31
0.0
  0
ARC
  5
1B3
100
AcDbEntity
  8
0
  6
CONTINUOUS
 62
     2
100
AcDbCircle
 10
8.756088
 20
2.620041
 30
0.0
 40
1.386011
100
AcDbArc
 50
269.611328
 51
335.998779
  0
LINE
  5
1B4
100
AcDbEntity
  8
0
  6
CONTINUOUS
 62
     2
100
AcDbLine
 10
10.490982
 20
3.109056
 30
0.0
 11
10.022247
 21
2.056335
 31
0.0
  0
LINE
  5
1B5
100
AcDbEntity
  8
0
  6
CONTINUOUS
 62
     2
100
AcDbLine
 10
21.231262
 20
3.931213
 30
0.0
 11
19.188065
 21
1.118271
 31
0.0
  0
LINE
  5
1B6
100
AcDbEntity
  8
0
  6
CONTINUOUS
 62
     2
100
AcDbLine
 10
20.686813
 20
3.67923
 30
0.0
 11
18.934204
 21
1.266403
 31
0.0
  0
ARC
  5
1B7
100
AcDbEntity
  8
0
  6
CONTINUOUS
 62
     2
100
AcDbCircle
 10
18.199936
 20
1.774406
 30
0.0
 40
0.932402
100
AcDbArc
 50
270.000031
 51
324.00116
  0
LINE
  5
1B8
100
AcDbEntity
  8
0
  6
CONTINUOUS
 62
     2
100
AcDbLine
 10
11.287949
 20
4.201559
 30
0.0
 11
15.726364
 21
4.201559
 31
0.0
  0
LINE
  5
1B9
100
AcDbEntity
  8
0
  6
CONTINUOUS
 62
     2
100
AcDbLine
 10
11.287949
 20
3.939575
 30
0.0
 11
15.726364
 21
3.939575
 31
0.0
  0
LINE
  5
1BA
100
AcDbEntity
  8
0
  6
CONTINUOUS
 62
     2
100
AcDbLine
 10
11.287949
 20
3.667591
 30
0.0
 11
15.726364
 21
3.667591
 31
0.0
  0
LINE
  5
1BB
100
AcDbEntity
  8
0
  6
CONTINUOUS
 62
     2
100
AcDbLine
 10
10.884766
 20
0.764404
 30
0.0
 11
16.129547
 21
0.764404
 31
0.0
  0
LINE
  5
1BC
100
AcDbEntity
  8
0
  6
CONTINUOUS
 62
     2
100
AcDbLine
 10
10.884766
 20
0.512405
 30
0.0
 11
16.129547
 21
0.512405
 31
0.0
  0
LINE
  5
1BD
100
AcDbEntity
  8
0
  6
CONTINUOUS
 62
     2
100
AcDbLine
 10
10.884766
 20
0.240391
 30
0.0
 11
16.129547
 21
0.240391
 31
0.0
  0
LINE
  5
1BE
100
AcDbEntity
  8
0
  6
CONTINUOUS
 62
     2
100
AcDbLine
 10
17.235214
 20
4.193213
 30
0.0
 11
21.525681
 21
4.193213
 31
0.0
  0
LINE
  5
1BF
100
AcDbEntity
  8
0
  6
CONTINUOUS
 62
     2
100
AcDbLine
 10
21.78569
 20
4.183212
 30
0.0
 11
19.451904
 21
0.970062
 31
0.0
  0
LINE
  5
1C0
100
AcDbEntity
  8
0
  6
CONTINUOUS
 62
     2
100
AcDbLine
 10
17.235214
 20
3.931213
 30
0.0
 11
21.03125
 21
3.931213
 31
0.0
  0
LINE
  5
1C1
100
AcDbEntity
  8
0
  6
CONTINUOUS
 62
     2
100
AcDbLine
 10
18.129929
 20
0.765997
 30
0.0
 11
16.832031
 21
0.765997
 31
0.0
  0
LINE
  5
1C2
100
AcDbEntity
  8
0
  6
CONTINUOUS
 62
     2
100
AcDbLine
 10
18.129929
 20
0.503998
 30
0.0
 11
16.832031
 21
0.503998
 31
0.0
  0
LINE
  5
1C3
100
AcDbEntity
  8
0
  6
CONTINUOUS
 62
     2
100
AcDbLine
 10
18.129929
 20
0.241999
 30
0.0
 11
16.832031
 21
0.241999
 31
0.0
  0
LINE
  5
1C4
100
AcDbEntity
  8
0
  6
CONTINUOUS
 62
     2
100
AcDbLine
 10
20.143188
 20
1.573715
 30
0.0
 11
21.337158
 21
0.2
 31
0.0
  0
LINE
  5
1C5
100
AcDbEntity
  8
0
  6
CONTINUOUS
 62
     2
100
AcDbLine
 10
20.295349
 20
1.753051
 30
0.0
 11
21.645172
 21
0.2
 31
0.0
  0
LINE
  5
1C6
100
AcDbEntity
  8
0
  6
CONTINUOUS
 62
     2
100
AcDbLine
 10
20.447311
 20
1.932295
 30
0.0
 11
21.952942
 21
0.2
 31
0.0
  0
LINE
  5
1C7
100
AcDbEntity
  8
0
  6
CONTINUOUS
 62
     2
100
AcDbLine
 10
20.599274
 20
2.111585
 30
0.0
 11
22.260925
 21
0.2
 31
0.0
  0
LINE
  5
1C8
100
AcDbEntity
  8
0
  6
CONTINUOUS
 62
     2
100
AcDbLine
 10
17.235214
 20
3.659229
 30
0.0
 11
20.436798
 21
3.659229
 31
0.0
  0
LINE
  5
1C9
100
AcDbEntity
  8
0
  6
CONTINUOUS
 62
     2
100
AcDbLine
 10
24.089554
 20
4.203213
 30
0.0
 11
28.931137
 21
4.203213
 31
0.0
  0
LINE
  5
1CA
100
AcDbEntity
  8
0
  6
CONTINUOUS
 62
     2
100
AcDbLine
 10
24.089554
 20
3.951214
 30
0.0
 11
28.931137
 21
3.951214
 31
0.0
  0
LINE
  5
1CB
100
AcDbEntity
  8
0
  6
CONTINUOUS
 62
     2
100
AcDbLine
 10
26.16774
 20
0.747992
 30
0.0
 11
26.16774
 21
3.721222
 31
0.0
  0
LINE
  5
1CC
100
AcDbEntity
  8
0
  6
CONTINUOUS
 62
     2
100
AcDbLine
 10
26.419586
 20
0.747992
 30
0.0
 11
26.419586
 21
3.721222
 31
0.0
  0
LINE
  5
1CD
100
AcDbEntity
  8
0
  6
CONTINUOUS
 62
     2
100
AcDbLine
 10
26.671417
 20
0.747992
 30
0.0
 11
26.671417
 21
3.721222
 31
0.0
  0
LINE
  5
1CE
100
AcDbEntity
  8
0
  6
CONTINUOUS
 62
     2
100
AcDbLine
 10
26.903244
 20
0.747992
 30
0.0
 11
26.903244
 21
3.721222
 31
0.0
  0
LINE
  5
1CF
100
AcDbEntity
  8
0
  6
CONTINUOUS
 62
     2
100
AcDbLine
 10
23.887955
 20
0.547992
 30
0.0
 11
29.132736
 21
0.547992
 31
0.0
  0
LINE
  5
1D0
100
AcDbEntity
  8
0
  6
CONTINUOUS
 62
     2
100
AcDbLine
 10
23.887955
 20
0.245993
 30
0.0
 11
29.132736
 21
0.245993
 31
0.0
  0
LINE
  5
1D1
100
AcDbEntity
  8
0
  6
CONTINUOUS
 62
     2
100
AcDbLine
 10
30.312759
 20
4.235196
 30
0.0
 11
30.687088
 21
3.75615
 31
0.0
  0
LINE
  5
1D2
100
AcDbEntity
  8
0
  6
CONTINUOUS
 62
     2
100
AcDbLine
 10
30.632477
 20
4.235196
 30
0.0
 11
31.006805
 21
3.75615
 31
0.0
  0
LINE
  5
1D3
100
AcDbEntity
  8
0
  6
CONTINUOUS
 62
     2
100
AcDbLine
 10
31.631134
 20
4.235196
 30
0.0
 11
31.631134
 21
3.798556
 31
0.0
  0
LINE
  5
1D4
100
AcDbEntity
  8
0
  6
CONTINUOUS
 62
     2
100
AcDbLine
 10
31.902985
 20
4.235196
 30
0.0
 11
31.902985
 21
3.798556
 31
0.0
  0
LINE
  5
1D5
100
AcDbEntity
  8
0
  6
CONTINUOUS
 62
     2
100
AcDbLine
 10
32.639099
 20
4.235196
 30
0.0
 11
32.639099
 21
3.798556
 31
0.0
  0
LINE
  5
1D6
100
AcDbEntity
  8
0
  6
CONTINUOUS
 62
     2
100
AcDbLine
 10
32.930939
 20
4.235196
 30
0.0
 11
32.930939
 21
3.798556
 31
0.0
  0
LINE
  5
1D7
100
AcDbEntity
  8
0
  6
CONTINUOUS
 62
     2
100
AcDbLine
 10
33.899567
 20
4.235196
 30
0.0
 11
33.525238
 21
3.75615
 31
0.0
  0
LINE
  5
1D8
100
AcDbEntity
  8
0
  6
CONTINUOUS
 62
     2
100
AcDbLine
 10
34.239288
 20
4.235196
 30
0.0
 11
33.86496
 21
3.75615
 31
0.0
  0
LINE
  5
1D9
100
AcDbEntity
  8
0
  6
CONTINUOUS
 62
     2
100
AcDbLine
 10
29.633621
 20
3.598557
 30
0.0
 11
34.878403
 21
3.598557
 31
0.0
  0
LINE
  5
1DA
100
AcDbEntity
  8
0
  6
CONTINUOUS
 62
     2
100
AcDbLine
 10
30.943176
 20
2.818829
 30
0.0
 11
30.727783
 21
3.410618
 31
0.0
  0
LINE
  5
1DB
100
AcDbEntity
  8
0
  6
CONTINUOUS
 62
     2
100
AcDbLine
 10
31.251221
 20
2.818829
 30
0.0
 11
31.035828
 21
3.410618
 31
0.0
  0
LINE
  5
1DC
100
AcDbEntity
  8
0
  6
CONTINUOUS
 62
     2
100
AcDbLine
 10
31.539261
 20
2.818851
 30
0.0
 11
31.324112
 21
3.410595
 31
0.0
  0
LINE
  5
1DD
100
AcDbEntity
  8
0
  6
CONTINUOUS
 62
     2
100
AcDbLine
 10
32.991943
 20
2.818807
 30
0.0
 11
33.207565
 21
3.41064
 31
0.0
  0
LINE
  5
1DE
100
AcDbEntity
  8
0
  6
CONTINUOUS
 62
     2
100
AcDbLine
 10
33.300201
 20
2.818807
 30
0.0
 11
33.515823
 21
3.41064
 31
0.0
  0
LINE
  5
1DF
100
AcDbEntity
  8
0
  6
CONTINUOUS
 62
     2
100
AcDbLine
 10
33.588242
 20
2.818807
 30
0.0
 11
33.803864
 21
3.41064
 31
0.0
  0
LINE
  5
1E0
100
AcDbEntity
  8
0
  6
CONTINUOUS
 62
     2
100
AcDbLine
 10
29.633621
 20
2.63089
 30
0.0
 11
34.878403
 21
2.63089
 31
0.0
  0
LINE
  5
1E1
100
AcDbEntity
  8
0
  6
CONTINUOUS
 62
     2
100
AcDbLine
 10
29.633621
 20
1.935364
 30
0.0
 11
31.783875
 21
1.935364
 31
0.0
  0
LINE
  5
1E2
100
AcDbEntity
  8
0
  6
CONTINUOUS
 62
     2
100
AcDbLine
 10
29.633621
 20
1.239838
 30
0.0
 11
31.783875
 21
1.239838
 31
0.0
  0
LINE
  5
1E3
100
AcDbEntity
  8
0
  6
CONTINUOUS
 62
     2
100
AcDbLine
 10
32.747559
 20
1.239838
 30
0.0
 11
34.878403
 21
1.239838
 31
0.0
  0
LINE
  5
1E4
100
AcDbEntity
  8
0
  6
CONTINUOUS
 62
     2
100
AcDbLine
 10
29.950882
 20
0.2
 30
0.0
 11
30.953323
 21
1.105754
 31
0.0
  0
LINE
  5
1E5
100
AcDbEntity
  8
0
  6
CONTINUOUS
 62
     2
100
AcDbLine
 10
30.286774
 20
0.2
 30
0.0
 11
31.289246
 21
1.105756
 31
0.0
  0
LINE
  5
1E6
100
AcDbEntity
  8
0
  6
CONTINUOUS
 62
     2
100
AcDbLine
 10
30.602875
 20
0.2
 30
0.0
 11
31.605347
 21
1.105756
 31
0.0
  0
LINE
  5
1E7
100
AcDbEntity
  8
0
  6
CONTINUOUS
 62
     2
100
AcDbLine
 10
31.983871
 20
0.2
 30
0.0
 11
31.983871
 21
2.43089
 31
0.0
  0
LINE
  5
1E8
100
AcDbEntity
  8
0
  6
CONTINUOUS
 62
     2
100
AcDbLine
 10
32.275711
 20
0.2
 30
0.0
 11
32.275711
 21
2.43089
 31
0.0
  0
LINE
  5
1E9
100
AcDbEntity
  8
0
  6
CONTINUOUS
 62
     2
100
AcDbLine
 10
32.547562
 20
0.2
 30
0.0
 11
32.547562
 21
2.43089
 31
0.0
  0
LINE
  5
1EA
100
AcDbEntity
  8
0
  6
CONTINUOUS
 62
     2
100
AcDbLine
 10
33.917175
 20
0.2
 30
0.0
 11
32.914734
 21
1.105754
 31
0.0
  0
LINE
  5
1EB
100
AcDbEntity
  8
0
  6
CONTINUOUS
 62
     2
100
AcDbLine
 10
34.253082
 20
0.2
 30
0.0
 11
33.25061
 21
1.105756
 31
0.0
  0
LINE
  5
1EC
100
AcDbEntity
  8
0
  6
CONTINUOUS
 62
     2
100
AcDbLine
 10
34.589188
 20
0.2
 30
0.0
 11
33.586716
 21
1.105756
 31
0.0
  0
LINE
  5
1ED
100
AcDbEntity
  8
0
  6
CONTINUOUS
 62
     2
100
AcDbLine
 10
36.499786
 20
4.235196
 30
0.0
 11
36.499786
 21
3.879199
 31
0.0
  0
LINE
  5
1EE
100
AcDbEntity
  8
0
  6
CONTINUOUS
 62
     2
100
AcDbLine
 10
36.751617
 20
4.235196
 30
0.0
 11
36.751617
 21
3.879199
 31
0.0
  0
LINE
  5
1EF
100
AcDbEntity
  8
0
  6
CONTINUOUS
 62
     2
100
AcDbLine
 10
37.003464
 20
4.235196
 30
0.0
 11
37.003464
 21
3.879199
 31
0.0
  0
LINE
  5
1F0
100
AcDbEntity
  8
0
  6
CONTINUOUS
 62
     2
100
AcDbLine
 10
35.479996
 20
3.679199
 30
0.0
 11
37.297516
 21
3.679199
 31
0.0
  0
LINE
  5
1F1
100
AcDbEntity
  8
0
  6
CONTINUOUS
 62
     2
100
AcDbLine
 10
35.494415
 20
0.198905
 30
0.0
 11
35.839203
 21
3.480294
 31
0.0
  0
LINE
  5
1F2
100
AcDbEntity
  8
0
  6
CONTINUOUS
 62
     2
100
AcDbLine
 10
35.727676
 20
0.198905
 30
0.0
 11
36.072479
 21
3.480294
 31
0.0
  0
LINE
  5
1F3
100
AcDbEntity
  8
0
  6
CONTINUOUS
 62
     2
100
AcDbLine
 10
36.499786
 20
0.2
 30
0.0
 11
36.499786
 21
3.479199
 31
0.0
  0
LINE
  5
1F4
100
AcDbEntity
  8
0
  6
CONTINUOUS
 62
     2
100
AcDbLine
 10
36.751617
 20
0.2
 30
0.0
 11
36.751617
 21
3.479199
 31
0.0
  0
LINE
  5
1F5
100
AcDbEntity
  8
0
  6
CONTINUOUS
 62
     2
100
AcDbLine
 10
37.003464
 20
0.2
 30
0.0
 11
37.003464
 21
3.479199
 31
0.0
  0
LINE
  5
1F6
100
AcDbEntity
  8
0
  6
CONTINUOUS
 62
     2
100
AcDbLine
 10
37.120926
 20
3.215425
 30
0.0
 11
37.380035
 21
2.858384
 31
0.0
  0
LINE
  5
1F7
100
AcDbEntity
  8
0
  6
CONTINUOUS
 62
     2
100
AcDbLine
 10
37.120926
 20
2.826425
 30
0.0
 11
37.380035
 21
2.469384
 31
0.0
  0
LINE
  5
1F8
100
AcDbEntity
  8
0
  6
CONTINUOUS
 62
     2
100
AcDbLine
 10
37.746918
 20
3.31886
 30
0.0
 11
37.976883
 21
4.241138
 31
0.0
  0
LINE
  5
1F9
100
AcDbEntity
  8
0
  6
CONTINUOUS
 62
     2
100
AcDbLine
 10
37.98674
 20
3.318869
 30
0.0
 11
38.216522
 21
4.241129
 31
0.0
  0
LINE
  5
1FA
100
AcDbEntity
  8
0
  6
CONTINUOUS
 62
     2
100
AcDbLine
 10
38.196381
 20
3.31886
 30
0.0
 11
38.426346
 21
4.241138
 31
0.0
  0
LINE
  5
1FB
100
AcDbEntity
  8
0
  6
CONTINUOUS
 62
     2
100
AcDbLine
 10
39.070236
 20
3.879199
 30
0.0
 11
39.070236
 21
4.235196
 31
0.0
  0
LINE
  5
1FC
100
AcDbEntity
  8
0
  6
CONTINUOUS
 62
     2
100
AcDbLine
 10
39.342072
 20
3.879199
 30
0.0
 11
39.342072
 21
4.235196
 31
0.0
  0
LINE
  5
1FD
100
AcDbEntity
  8
0
  6
CONTINUOUS
 62
     2
100
AcDbLine
 10
39.593918
 20
3.879199
 30
0.0
 11
39.593918
 21
4.235196
 31
0.0
  0
LINE
  5
1FE
100
AcDbEntity
  8
0
  6
CONTINUOUS
 62
     2
100
AcDbLine
 10
38.486221
 20
3.679199
 30
0.0
 11
40.724777
 21
3.679199
 31
0.0
  0
LINE
  5
1FF
100
AcDbEntity
  8
0
  6
CONTINUOUS
 62
     2
100
AcDbLine
 10
39.070236
 20
3.479199
 30
0.0
 11
39.070236
 21
2.871203
 31
0.0
  0
LINE
  5
200
100
AcDbEntity
  8
0
  6
CONTINUOUS
 62
     2
100
AcDbLine
 10
39.342072
 20
3.479199
 30
0.0
 11
39.342072
 21
2.871203
 31
0.0
  0
LINE
  5
201
100
AcDbEntity
  8
0
  6
CONTINUOUS
 62
     2
100
AcDbLine
 10
39.593918
 20
3.479199
 30
0.0
 11
39.593918
 21
2.871203
 31
0.0
  0
LINE
  5
202
100
AcDbEntity
  8
0
  6
CONTINUOUS
 62
     2
100
AcDbLine
 10
37.798401
 20
2.671204
 30
0.0
 11
40.825668
 21
2.671204
 31
0.0
  0
LINE
  5
203
100
AcDbEntity
  8
0
  6
CONTINUOUS
 62
     2
100
AcDbLine
 10
38.244797
 20
2.474439
 30
0.0
 11
37.830078
 21
0.196765
 31
0.0
  0
LINE
  5
204
100
AcDbEntity
  8
0
  6
CONTINUOUS
 62
     2
100
AcDbLine
 10
38.480728
 20
2.474439
 30
0.0
 11
38.066025
 21
0.196765
 31
0.0
  0
LINE
  5
205
100
AcDbEntity
  8
0
  6
CONTINUOUS
 62
     2
100
AcDbLine
 10
38.688919
 20
2.474442
 30
0.0
 11
38.274002
 21
0.196762
 31
0.0
  0
LINE
  5
206
100
AcDbEntity
  8
0
  6
CONTINUOUS
 62
     2
100
AcDbLine
 10
39.070236
 20
2.471204
 30
0.0
 11
39.070236
 21
0.2
 31
0.0
  0
LINE
  5
207
100
AcDbEntity
  8
0
  6
CONTINUOUS
 62
     2
100
AcDbLine
 10
39.322067
 20
2.471204
 30
0.0
 11
39.322067
 21
0.2
 31
0.0
  0
LINE
  5
208
100
AcDbEntity
  8
0
  6
CONTINUOUS
 62
     3
100
AcDbLine
 10
39.593918
 20
2.471204
 30
0.0
 11
39.593918
 21
0.2
 31
0.0
  0
LINE
  5
209
100
AcDbEntity
  8
0
  6
CONTINUOUS
 62
     2
100
AcDbLine
 10
39.934952
 20
2.474442
 30
0.0
 11
40.349869
 21
0.196762
 31
0.0
  0
LINE
  5
20A
100
AcDbEntity
  8
0
  6
CONTINUOUS
 62
     2
100
AcDbLine
 10
40.151093
 20
2.474442
 30
0.0
 11
40.56601
 21
0.196762
 31
0.0
  0
LINE
  5
20B
100
AcDbEntity
  8
0
  6
CONTINUOUS
 62
     2
100
AcDbLine
 10
40.407028
 20
2.474442
 30
0.0
 11
40.821945
 21
0.196762
 31
0.0
  0
LINE
  5
20C
100
AcDbEntity
  8
0
  6
CONTINUOUS
 62
     2
100
AcDbLine
 10
41.427261
 20
3.840015
 30
0.0
 11
44.28241
 21
3.840015
 31
0.0
  0
LINE
  5
20D
100
AcDbEntity
  8
0
  6
CONTINUOUS
 62
     2
100
AcDbLine
 10
41.427261
 20
3.588017
 30
0.0
 11
44.37413
 21
3.588017
 31
0.0
  0
LINE
  5
20E
100
AcDbEntity
  8
0
  6
CONTINUOUS
 62
     2
100
AcDbLine
 10
45.811661
 20
0.187939
 30
0.0
 11
44.334198
 21
4.247257
 31
0.0
  0
LINE
  5
20F
100
AcDbEntity
  8
0
  6
CONTINUOUS
 62
     2
100
AcDbLine
 10
46.079697
 20
0.18794
 30
0.0
 11
44.602295
 21
4.247256
 31
0.0
  0
LINE
  5
210
100
AcDbEntity
  8
0
  6
CONTINUOUS
 62
     2
100
AcDbLine
 10
46.347733
 20
0.18794
 30
0.0
 11
44.870331
 21
4.247256
 31
0.0
  0
LINE
  5
211
100
AcDbEntity
  8
0
  6
CONTINUOUS
 62
     2
100
AcDbLine
 10
46.615768
 20
0.187936
 30
0.0
 11
45.138138
 21
4.247259
 31
0.0
  0
LINE
  5
212
100
AcDbEntity
  8
0
  6
CONTINUOUS
 62
     2
100
AcDbLine
 10
45.854309
 20
4.040015
 30
0.0
 11
45.854309
 21
4.235196
 31
0.0
  0
LINE
  5
213
100
AcDbEntity
  8
0
  6
CONTINUOUS
 62
     2
100
AcDbLine
 10
46.12616
 20
4.040015
 30
0.0
 11
46.12616
 21
4.235196
 31
0.0
  0
LINE
  5
214
100
AcDbEntity
  8
0
  6
CONTINUOUS
 62
     2
100
AcDbLine
 10
46.397995
 20
4.040015
 30
0.0
 11
46.397995
 21
4.235196
 31
0.0
  0
LINE
  5
215
100
AcDbEntity
  8
0
  6
CONTINUOUS
 62
     2
100
AcDbLine
 10
45.486374
 20
3.840015
 30
0.0
 11
46.672043
 21
3.840015
 31
0.0
  0
LINE
  5
216
100
AcDbEntity
  8
0
  6
CONTINUOUS
 62
     2
100
AcDbLine
 10
45.57811
 20
3.588017
 30
0.0
 11
46.672043
 21
3.588017
 31
0.0
  0
LINE
  5
217
100
AcDbEntity
  8
0
  6
CONTINUOUS
 62
     2
100
AcDbLine
 10
41.729553
 20
2.63641
 30
0.0
 11
44.353638
 21
2.63641
 31
0.0
  0
LINE
  5
218
100
AcDbEntity
  8
0
  6
CONTINUOUS
 62
     2
100
AcDbLine
 10
41.729553
 20
2.384396
 30
0.0
 11
44.353638
 21
2.384396
 31
0.0
  0
LINE
  5
219
100
AcDbEntity
  8
0
  6
CONTINUOUS
 62
     2
100
AcDbLine
 10
42.679092
 20
2.184396
 30
0.0
 11
42.679092
 21
1.179115
 31
0.0
  0
LINE
  5
21A
100
AcDbEntity
  8
0
  6
CONTINUOUS
 62
     2
100
AcDbLine
 10
42.930923
 20
2.184396
 30
0.0
 11
42.930923
 21
1.232643
 31
0.0
  0
LINE
  5
21B
100
AcDbEntity
  8
0
  6
CONTINUOUS
 62
     2
100
AcDbLine
 10
43.182755
 20
2.184396
 30
0.0
 11
43.182755
 21
1.286172
 31
0.0
  0
LINE
  5
21C
100
AcDbEntity
  8
0
  6
CONTINUOUS
 62
     2
100
AcDbLine
 10
43.434601
 20
2.184396
 30
0.0
 11
43.434601
 21
1.339703
 31
0.0
  0
LINE
  5
21D
100
AcDbEntity
  8
0
  6
CONTINUOUS
 62
     2
100
AcDbLine
 10
41.674728
 20
0.765632
 30
0.0
 11
44.408447
 21
1.3467
 31
0.0
  0
LINE
  5
21E
100
AcDbEntity
  8
0
  6
CONTINUOUS
 62
     2
100
AcDbLine
 10
41.674728
 20
0.488003
 30
0.0
 11
44.408447
 21
1.069085
 31
0.0
  0
LINE
  5
21F
100
AcDbEntity
  8
0
  6
CONTINUOUS
 62
     2
100
AcDbLine
 10
41.674728
 20
0.250373
 30
0.0
 11
44.408447
 21
0.831441
 31
0.0
  0
LINE
  5
220
100
AcDbEntity
  8
0
  6
CONTINUOUS
 62
     2
100
AcDbLine
 10
47.263306
 20
3.432594
 30
0.0
 11
49.851532
 21
4.29854
 31
0.0
  0
LINE
  5
221
100
AcDbEntity
  8
0
  6
CONTINUOUS
 62
     2
100
AcDbLine
 10
47.263306
 20
3.166862
 30
0.0
 11
49.851532
 21
4.032824
 31
0.0
  0
LINE
  5
222
100
AcDbEntity
  8
0
  6
CONTINUOUS
 62
     2
100
AcDbLine
 10
50.041199
 20
4.298539
 30
0.0
 11
52.62944
 21
3.43253
 31
0.0
  0
LINE
  5
223
100
AcDbEntity
  8
0
  6
CONTINUOUS
 62
     2
100
AcDbLine
 10
50.041199
 20
4.052823
 30
0.0
 11
52.62944
 21
3.186814
 31
0.0
  0
LINE
  5
224
100
AcDbEntity
  8
0
  6
CONTINUOUS
 62
     2
100
AcDbLine
 10
51.762497
 20
3.159611
 30
0.0
 11
48.130447
 21
3.159611
 31
0.0
  0
LINE
  5
225
100
AcDbEntity
  8
0
  6
CONTINUOUS
 62
     2
100
AcDbLine
 10
51.762497
 20
2.887596
 30
0.0
 11
48.130447
 21
2.887596
 31
0.0
  0
LINE
  5
226
100
AcDbEntity
  8
0
  6
CONTINUOUS
 62
     2
100
AcDbLine
 10
47.273636
 20
2.106392
 30
0.0
 11
52.61911
 21
2.106392
 31
0.0
  0
LINE
  5
227
100
AcDbEntity
  8
0
  6
CONTINUOUS
 62
     2
100
AcDbLine
 10
47.273636
 20
1.874409
 30
0.0
 11
52.61911
 21
1.874409
 31
0.0
  0
LINE
  5
228
100
AcDbEntity
  8
0
  6
CONTINUOUS
 62
     2
100
AcDbLine
 10
48.101334
 20
1.693153
 30
0.0
 11
47.591125
 21
0.599246
 31
0.0
  0
LINE
  5
229
100
AcDbEntity
  8
0
  6
CONTINUOUS
 62
     2
100
AcDbLine
 10
48.419434
 20
1.693154
 30
0.0
 11
47.90921
 21
0.599246
 31
0.0
  0
LINE
  5
22A
100
AcDbEntity
  8
0
  6
CONTINUOUS
 62
     2
100
AcDbLine
 10
48.737534
 20
1.693154
 30
0.0
 11
48.22731
 21
0.599246
 31
0.0
  0
LINE
  5
22B
100
AcDbEntity
  8
0
  6
CONTINUOUS
 62
     2
100
AcDbLine
 10
51.155411
 20
1.693167
 30
0.0
 11
51.665833
 21
0.599234
 31
0.0
  0
LINE
  5
22C
100
AcDbEntity
  8
0
  6
CONTINUOUS
 62
     2
100
AcDbLine
 10
51.473709
 20
1.693142
 30
0.0
 11
51.983704
 21
0.599258
 31
0.0
  0
LINE
  5
22D
100
AcDbEntity
  8
0
  6
CONTINUOUS
 62
     2
100
AcDbLine
 10
51.791992
 20
1.693131
 30
0.0
 11
52.301819
 21
0.599269
 31
0.0
  0
LINE
  5
22E
100
AcDbEntity
  8
0
  6
CONTINUOUS
 62
     2
100
AcDbLine
 10
47.468536
 20
0.417992
 30
0.0
 11
52.42421
 21
0.417992
 31
0.0
  0
LINE
  5
22F
100
AcDbEntity
  8
0
  6
CONTINUOUS
 62
     2
100
AcDbLine
 10
47.351028
 20
0.165993
 30
0.0
 11
52.541718
 21
0.165993
 31
0.0
  0
LINE
  5
230
100
AcDbEntity
  8
0
  6
CONTINUOUS
 62
     2
100
AcDbLine
 10
54.139786
 20
4.040015
 30
0.0
 11
54.139786
 21
4.235196
 31
0.0
  0
LINE
  5
231
100
AcDbEntity
  8
0
  6
CONTINUOUS
 62
     2
100
AcDbLine
 10
54.431625
 20
4.040015
 30
0.0
 11
54.431625
 21
4.235196
 31
0.0
  0
LINE
  5
232
100
AcDbEntity
  8
0
  6
CONTINUOUS
 62
     2
100
AcDbLine
 10
54.72348
 20
4.040015
 30
0.0
 11
54.72348
 21
4.235196
 31
0.0
  0
LINE
  5
233
100
AcDbEntity
  8
0
  6
CONTINUOUS
 62
     2
100
AcDbLine
 10
53.220688
 20
3.840015
 30
0.0
 11
55.508789
 21
3.840015
 31
0.0
  0
LINE
  5
234
100
AcDbEntity
  8
0
  6
CONTINUOUS
 62
     2
100
AcDbLine
 10
53.220688
 20
3.588017
 30
0.0
 11
55.332382
 21
3.588017
 31
0.0
  0
LINE
  5
235
100
AcDbEntity
  8
0
  6
CONTINUOUS
 62
     2
100
AcDbLine
 10
54.537918
 20
3.424168
 30
0.0
 11
53.135376
 21
1.420472
 31
0.0
  0
LINE
  5
236
100
AcDbEntity
  8
0
  6
CONTINUOUS
 62
     2
100
AcDbLine
 10
54.865662
 20
3.42418
 30
0.0
 11
53.135391
 21
0.952851
 31
0.0
  0
LINE
  5
237
100
AcDbEntity
  8
0
  6
CONTINUOUS
 62
     2
100
AcDbLine
 10
55.173798
 20
3.424177
 30
0.0
 11
53.135391
 21
0.512573
 31
0.0
  0
LINE
  5
238
100
AcDbEntity
  8
0
  6
CONTINUOUS
 62
     2
100
AcDbLine
 10
54.692993
 20
2.388691
 30
0.0
 11
55.578674
 21
1.768464
 31
0.0
  0
LINE
  5
239
100
AcDbEntity
  8
0
  6
CONTINUOUS
 62
     2
100
AcDbLine
 10
54.548447
 20
2.182199
 30
0.0
 11
55.578659
 21
1.460799
 31
0.0
  0
LINE
  5
23A
100
AcDbEntity
  8
0
  6
CONTINUOUS
 62
     2
100
AcDbLine
 10
54.394501
 20
1.962313
 30
0.0
 11
55.578659
 21
1.13315
 31
0.0
  0
LINE
  5
23B
100
AcDbEntity
  8
0
  6
CONTINUOUS
 62
     2
100
AcDbLine
 10
54.139786
 20
1.747223
 30
0.0
 11
54.139786
 21
0.2
 31
0.0
  0
LINE
  5
23C
100
AcDbEntity
  8
0
  6
CONTINUOUS
 62
     2
100
AcDbLine
 10
54.431625
 20
1.736316
 30
0.0
 11
54.431625
 21
0.2
 31
0.0
  0
LINE
  5
23D
100
AcDbEntity
  8
0
  6
CONTINUOUS
 62
     2
100
AcDbLine
 10
54.72348
 20
1.531957
 30
0.0
 11
54.72348
 21
0.2
 31
0.0
  0
LINE
  5
23E
100
AcDbEntity
  8
0
  6
CONTINUOUS
 62
     2
100
AcDbLine
 10
56.861374
 20
0.617991
 30
0.0
 11
56.861374
 21
4.235196
 31
0.0
  0
LINE
  5
23F
100
AcDbEntity
  8
0
  6
CONTINUOUS
 62
     2
100
AcDbLine
 10
57.153214
 20
0.617991
 30
0.0
 11
57.153214
 21
4.235196
 31
0.0
  0
LINE
  5
240
100
AcDbEntity
  8
0
  6
CONTINUOUS
 62
     2
100
AcDbLine
 10
57.445068
 20
0.617991
 30
0.0
 11
57.445068
 21
4.235196
 31
0.0
  0
LINE
  5
241
100
AcDbEntity
  8
0
  6
CONTINUOUS
 62
     2
100
AcDbLine
 10
55.94249
 20
3.134403
 30
0.0
 11
56.661377
 21
3.134403
 31
0.0
  0
LINE
  5
242
100
AcDbEntity
  8
0
  6
CONTINUOUS
 62
     2
100
AcDbLine
 10
55.94249
 20
2.88242
 30
0.0
 11
56.661377
 21
2.88242
 31
0.0
  0
LINE
  5
243
100
AcDbEntity
  8
0
  6
CONTINUOUS
 62
     2
100
AcDbLine
 10
57.645065
 20
3.134403
 30
0.0
 11
58.364777
 21
3.134403
 31
0.0
  0
LINE
  5
244
100
AcDbEntity
  8
0
  6
CONTINUOUS
 62
     2
100
AcDbLine
 10
57.645065
 20
2.862419
 30
0.0
 11
58.364777
 21
2.862419
 31
0.0
  0
LINE
  5
245
100
AcDbEntity
  8
0
  6
CONTINUOUS
 62
     2
100
AcDbLine
 10
55.539093
 20
0.417992
 30
0.0
 11
58.465668
 21
0.417992
 31
0.0
  0
LINE
  5
246
100
AcDbEntity
  8
0
  6
CONTINUOUS
 62
     2
100
AcDbLine
 10
55.539093
 20
0.165993
 30
0.0
 11
58.465668
 21
0.165993
 31
0.0
  0
LINE
  5
247
100
AcDbEntity
  8
0
  6
CONTINUOUS
 62
     2
100
AcDbLine
 10
32.747559
 20
1.935364
 30
0.0
 11
34.878403
 21
1.935364
 31
0.0
  0
ENDBLK
  5
248
100
AcDbEntity
  8
0
100
AcDbBlockEnd
  0
ENDSEC
  0
SECTION
  2
ENTITIES
  0
LINE
  5
249
100
AcDbEntity
  8
0
  6
CONTINUOUS
 62
     7
100
AcDbLine
 10
18.0
 20
8.5
 30
0.0
 11
200.0
 21
8.5
 31
0.0
  0
LINE
  5
24A
100
AcDbEntity
  8
0
  6
CONTINUOUS
 62
     7
100
AcDbLine
 10
200.0
 20
8.5
 30
0.0
 11
200.0
 21
288.5
 31
0.0
  0
LINE
  5
24B
100
AcDbEntity
  8
0
  6
CONTINUOUS
 62
     7
100
AcDbLine
 10
18.0
 20
8.5
 30
0.0
 11
18.0
 21
288.5
 31
0.0
  0
LINE
  5
24C
100
AcDbEntity
  8
0
  6
CONTINUOUS
 62
     7
100
AcDbLine
 10
18.0
 20
288.5
 30
0.0
 11
200.0
 21
288.5
 31
0.0
  0
LINE
  5
24D
100
AcDbEntity
  8
0
  6
CONTINUOUS
 62
     7
100
AcDbLine
 10
18.0
 20
30.5
 30
0.0
 11
200.0
 21
30.5
 31
0.0
  0
LINE
  5
24E
100
AcDbEntity
  8
0
  6
CONTINUOUS
 62
     6
100
AcDbLine
 10
88.0
 20
282.5
 30
0.0
 11
200.0
 21
282.5
 31
0.0
  0
LINE
  5
24F
100
AcDbEntity
  8
0
  6
CONTINUOUS
 62
     6
100
AcDbLine
 10
200.0
 20
18.5
 30
0.0
 11
75.0
 21
18.5
 31
0.0
  0
LINE
  5
250
100
AcDbEntity
  8
0
  6
CONTINUOUS
 62
     6
100
AcDbLine
 10
186.0
 20
30.5
 30
0.0
 11
186.0
 21
18.5
 31
0.0
  0
LINE
  5
251
100
AcDbEntity
  8
0
  6
CONTINUOUS
 62
     6
100
AcDbLine
 10
181.0
 20
30.5
 30
0.0
 11
181.0
 21
18.5
 31
0.0
  0
LINE
  5
252
100
AcDbEntity
  8
0
  6
CONTINUOUS
 62
     6
100
AcDbLine
 10
144.0
 20
30.5
 30
0.0
 11
144.0
 21
8.5
 31
0.0
  0
LINE
  5
253
100
AcDbEntity
  8
0
  6
CONTINUOUS
 62
     6
100
AcDbLine
 10
139.0
 20
30.5
 30
0.0
 11
139.0
 21
8.5
 31
0.0
  0
LINE
  5
254
100
AcDbEntity
  8
0
  6
CONTINUOUS
 62
     6
100
AcDbLine
 10
80.0
 20
30.5
 30
0.0
 11
80.0
 21
18.5
 31
0.0
  0
LINE
  5
255
100
AcDbEntity
  8
0
  6
CONTINUOUS
 62
     6
100
AcDbLine
 10
75.0
 20
30.5
 30
0.0
 11
75.0
 21
8.5
 31
0.0
  0
LINE
  5
256
100
AcDbEntity
  8
0
  6
CONTINUOUS
 62
     6
100
AcDbLine
 10
62.0
 20
30.5
 30
0.0
 11
62.0
 21
8.5
 31
0.0
  0
LINE
  5
257
100
AcDbEntity
  8
0
  6
CONTINUOUS
 62
     6
100
AcDbLine
 10
49.0
 20
30.5
 30
0.0
 11
49.0
 21
8.5
 31
0.0
  0
LINE
  5
258
100
AcDbEntity
  8
0
  6
CONTINUOUS
 62
     6
100
AcDbLine
 10
33.5
 20
30.5
 30
0.0
 11
33.5
 21
8.5
 31
0.0
  0
LINE
  5
259
100
AcDbEntity
  8
0
  6
CONTINUOUS
 62
     6
100
AcDbLine
 10
18.0
 20
25.5
 30
0.0
 11
75.0
 21
25.5
 31
0.0
  0
LINE
  5
25A
100
AcDbEntity
  8
0
  6
CONTINUOUS
 62
     6
100
AcDbLine
 10
189.265411
 20
20.800293
 30
0.0
 11
196.99939
 21
28.669983
 31
0.0
  0
LINE
  5
25B
100
AcDbEntity
  8
0
  6
EXLTYPE2
 62
     6
100
AcDbLine
 10
18.0
 20
13.5
 30
0.0
 11
49.0
 21
13.5
 31
0.0
  0
CIRCLE
  5
25C
100
AcDbEntity
  8
0
  6
CONTINUOUS
 62
     6
100
AcDbCircle
 10
23.0
 20
11.0
 30
0.0
 40
0.1
  0
CIRCLE
  5
25D
100
AcDbEntity
  8
0
  6
CONTINUOUS
 62
     6
100
AcDbCircle
 10
28.0
 20
11.0
 30
0.0
 40
0.1
  0
CIRCLE
  5
25E
100
AcDbEntity
  8
0
  6
CONTINUOUS
 62
     6
100
AcDbCircle
 10
38.5
 20
11.0
 30
0.0
 40
0.1
  0
CIRCLE
  5
25F
100
AcDbEntity
  8
0
  6
CONTINUOUS
 62
     6
100
AcDbCircle
 10
43.5
 20
11.0
 30
0.0
 40
0.1
  0
LINE
  5
260
100
AcDbEntity
  8
0
  6
CONTINUOUS
 62
     6
100
AcDbLine
 10
88.0
 20
270.0
 30
0.0
 11
200.0
 21
270.0
 31
0.0
  0
LINE
  5
261
100
AcDbEntity
  8
0
  6
CONTINUOUS
 62
     6
100
AcDbLine
 10
88.0
 20
263.75
 30
0.0
 11
200.0
 21
263.75
 31
0.0
  0
LINE
  5
262
100
AcDbEntity
  8
0
  6
CONTINUOUS
 62
     6
100
AcDbLine
 10
88.0
 20
276.25
 30
0.0
 11
200.0
 21
276.25
 31
0.0
  0
LINE
  5
263
100
AcDbEntity
  8
0
  6
CONTINUOUS
 62
     6
100
AcDbLine
 10
88.0
 20
288.5
 30
0.0
 11
88.0
 21
257.5
 31
0.0
  0
LINE
  5
264
100
AcDbEntity
  8
0
  6
CONTINUOUS
 62
     6
100
AcDbLine
 10
99.0
 20
288.5
 30
0.0
 11
99.0
 21
257.5
 31
0.0
  0
LINE
  5
265
100
AcDbEntity
  8
0
  6
CONTINUOUS
 62
     6
100
AcDbLine
 10
129.0
 20
288.5
 30
0.0
 11
129.0
 21
257.5
 31
0.0
  0
LINE
  5
266
100
AcDbEntity
  8
0
  6
CONTINUOUS
 62
     6
100
AcDbLine
 10
159.0
 20
288.5
 30
0.0
 11
159.0
 21
257.5
 31
0.0
  0
LINE
  5
267
100
AcDbEntity
  8
0
  6
CONTINUOUS
 62
     6
100
AcDbLine
 10
170.0
 20
288.5
 30
0.0
 11
170.0
 21
257.5
 31
0.0
  0
TEXT
  5
268
100
AcDbEntity
  8
0
  6
CONTINUOUS
 62
     2
100
AcDbText
 10
88.65
 20
282.875
 30
0.0
 40
5.25
  1
番号
 41
0.776
  7
EXCADSTD
 72
     5
 11
97.54102
 21
282.875
 31
0.0
100
AcDbText
  0
TEXT
  5
269
100
AcDbEntity
  8
0
  6
CONTINUOUS
 62
     2
100
AcDbText
 10
159.65
 20
282.875
 30
0.0
 40
5.25
  1
個数
 41
0.776
  7
EXCADSTD
 72
     5
 11
168.54102
 21
282.875
 31
0.0
100
AcDbText
  0
TEXT
  5
26A
100
AcDbEntity
  8
0
  6
CONTINUOUS
 62
     2
100
AcDbText
 10
105.0
 20
282.875
 30
0.0
 40
5.25
  1
品名
 41
1.44
  7
EXCADSTD
 72
     5
 11
121.4988
 21
282.875
 31
0.0
100
AcDbText
  0
TEXT
  5
26B
100
AcDbEntity
  8
0
  6
CONTINUOUS
 62
     2
100
AcDbText
 10
135.0
 20
282.875
 30
0.0
 40
5.25
  1
材質
 41
1.44
  7
EXCADSTD
 72
     5
 11
151.4988
 21
282.875
 31
0.0
100
AcDbText
  0
TEXT
  5
26C
100
AcDbEntity
  8
0
  6
CONTINUOUS
 62
     2
100
AcDbText
 10
176.0
 20
282.875
 30
0.0
 40
5.25
  1
備考
 41
1.44
  7
EXCADSTD
 72
     5
 11
192.4988
 21
282.875
 31
0.0
100
AcDbText
  0
TEXT
  5
26D
100
AcDbEntity
  8
0
  6
CONTINUOUS
 62
     2
100
AcDbText
 10
91.0
 20
276.875
 30
0.0
 40
5.0
  1
１
 41
0.84
  7
EXCADSTD
 72
     5
 11
95.0
 21
276.875
 31
0.0
100
AcDbText
  0
TEXT
  5
26E
100
AcDbEntity
  8
0
  6
CONTINUOUS
 62
     2
100
AcDbText
 10
91.0
 20
270.625
 30
0.0
 40
5.0
  1
２
 41
0.84
  7
EXCADSTD
 72
     5
 11
95.0
 21
270.625
 31
0.0
100
AcDbText
  0
TEXT
  5
26F
100
AcDbEntity
  8
0
  6
CONTINUOUS
 62
     2
100
AcDbText
 10
91.0
 20
264.375
 30
0.0
 40
5.0
  1
３
 41
0.84
  7
EXCADSTD
 72
     5
 11
95.0
 21
264.375
 31
0.0
100
AcDbText
  0
TEXT
  5
270
100
AcDbEntity
  8
0
  6
CONTINUOUS
 62
     2
100
AcDbText
 10
99.0
 20
276.75
 30
0.0
 40
5.25
  1
ブラケット／カバー
 41
0.545778
  7
EXCADSTD
 72
     5
 11
129.700002
 21
276.75
 31
0.0
100
AcDbText
  0
TEXT
  5
271
100
AcDbEntity
  8
0
  6
CONTINUOUS
 62
     2
100
AcDbText
 10
99.0
 20
264.25
 30
0.0
 40
5.25
  1
パイプ
 41
0.714667
  7
EXCADSTD
 72
     5
 11
112.4
 21
264.25
 31
0.0
100
AcDbText
  0
TEXT
  5
272
100
AcDbEntity
  8
0
  6
CONTINUOUS
 62
     2
100
AcDbText
 10
129.0
 20
276.75
 30
0.0
 40
5.25
  1
合成樹脂
 41
0.704
  7
EXCADSTD
 72
     5
 11
146.6
 21
276.75
 31
0.0
100
AcDbText
  0
TEXT
  5
273
100
AcDbEntity
  8
0
  6
CONTINUOUS
 62
     2
100
AcDbText
 10
129.0
 20
264.25
 30
0.0
 40
5.25
  1
ステンレス／合成樹脂
 41
0.4768
  7
EXCADSTD
 72
     5
 11
158.8
 21
264.25
 31
0.0
100
AcDbText
  0
TEXT
  5
274
100
AcDbEntity
  8
0
  6
CONTINUOUS
 62
     2
100
AcDbText
 10
162.125
 20
276.95
 30
0.0
 40
4.85
  1
２
 41
0.82268
  7
EXCADSTD
 72
     5
 11
165.925
 21
276.95
 31
0.0
100
AcDbText
  0
TEXT
  5
275
100
AcDbEntity
  8
0
  6
CONTINUOUS
 62
     2
100
AcDbText
 10
162.125
 20
270.7
 30
0.0
 40
4.85
  1
１
 41
0.82268
  7
EXCADSTD
 72
     5
 11
165.925
 21
270.7
 31
0.0
100
AcDbText
  0
TEXT
  5
276
100
AcDbEntity
  8
0
  6
CONTINUOUS
 62
     2
100
AcDbText
 10
20.25
 20
25.75
 30
0.0
 40
4.5
  1
製図
 41
1.026667
  7
EXCADSTD
 72
     5
 11
30.3326
 21
25.75
 31
0.0
100
AcDbText
  0
TEXT
  5
277
100
AcDbEntity
  8
0
  6
CONTINUOUS
 62
     2
100
AcDbText
 10
35.75
 20
25.75
 30
0.0
 40
4.5
  1
写図
 41
1.026667
  7
EXCADSTD
 72
     5
 11
45.8326
 21
25.75
 31
0.0
100
AcDbText
  0
TEXT
  5
278
100
AcDbEntity
  8
0
  6
CONTINUOUS
 62
     2
100
AcDbText
 10
50.5
 20
25.75
 30
0.0
 40
4.5
  1
検図
 41
0.933333
  7
EXCADSTD
 72
     5
 11
59.666
 21
25.75
 31
0.0
100
AcDbText
  0
TEXT
  5
279
100
AcDbEntity
  8
0
  6
CONTINUOUS
 62
     2
100
AcDbText
 10
63.5
 20
25.75
 30
0.0
 40
4.5
  1
承認
 41
0.933333
  7
EXCADSTD
 72
     5
 11
72.666
 21
25.75
 31
0.0
100
AcDbText
  0
TEXT
  5
27A
100
AcDbEntity
  8
0
  6
CONTINUOUS
 62
     2
100
AcDbText
 10
77.5
 20
29.5
 30
0.0
 40
4.5
  1
品名
  7
EXCADVERT
 72
     3
 11
77.5
 21
19.5
 31
0.0
100
AcDbText
  0
TEXT
  5
27B
100
AcDbEntity
  8
0
  6
CONTINUOUS
 62
     2
100
AcDbText
 10
141.5
 20
29.5
 30
0.0
 40
4.5
  1
品番
  7
EXCADVERT
 72
     3
 11
141.5
 21
19.5
 31
0.0
100
AcDbText
  0
TEXT
  5
27C
100
AcDbEntity
  8
0
  6
CONTINUOUS
 62
     2
100
AcDbText
 10
183.5
 20
29.5
 30
0.0
 40
4.5
  1
尺度
  7
EXCADVERT
 72
     3
 11
183.5
 21
19.5
 31
0.0
100
AcDbText
  0
TEXT
  5
27D
100
AcDbEntity
  8
0
  6
CONTINUOUS
 62
     2
100
AcDbText
 10
141.5
 20
18.0
 30
0.0
 40
4.5
  1
図番
  7
EXCADVERT
 72
     3
 11
141.5
 21
9.0
 31
0.0
100
AcDbText
  0
TEXT
  5
27E
100
AcDbEntity
  8
0
  6
CONTINUOUS
 62
     2
100
AcDbText
 10
196.3
 20
24.05
 30
0.0
 40
3.5
  1
５
 41
0.785714
  7
EXCADVERT
 72
     3
 11
196.3
 21
20.55
 31
0.0
100
AcDbText
  0
TEXT
  5
27F
100
AcDbEntity
  8
0
  6
CONTINUOUS
 62
     2
100
AcDbText
 10
189.7
 20
28.65
 30
0.0
 40
3.5
  1
１
 41
0.785714
  7
EXCADVERT
 72
     3
 11
189.7
 21
25.15
 31
0.0
100
AcDbText
  0
TEXT
  5
280
100
AcDbEntity
  8
0
  6
CONTINUOUS
 62
     7
100
AcDbText
 10
83.0
 20
20.8
 30
0.0
 40
7.0
  1
アクセサリーバー
 41
0.795
  7
EXCADSTD
 72
     5
 11
136.0
 21
20.8
 31
0.0
100
AcDbText
  0
INSERT
  5
281
100
AcDbEntity
  8
0
  6
CONTINUOUS
 62
     0
100
AcDbBlockReference
  2
JANIS-A4
 10
77.7
 20
11.5
 30
0.0
  0
LINE
  5
282
100
AcDbEntity
  8
0
  6
EXLTYPE2
 62
     6
100
AcDbLine
 10
0.7
 20
146.25
 30
0.0
 11
18.0
 21
146.25
 31
0.0
  0
LINE
  5
283
100
AcDbEntity
  8
0
  6
CONTINUOUS
 62
     6
100
AcDbLine
 10
88.0
 20
257.5
 30
0.0
 11
200.0
 21
257.5
 31
0.0
  0
TEXT
  5
284
100
AcDbEntity
  8
0
  6
CONTINUOUS
 62
     2
100
AcDbText
 10
91.0
 20
258.125
 30
0.0
 40
5.0
  1
４
 41
0.84
  7
EXCADSTD
 72
     5
 11
95.0
 21
258.125
 31
0.0
100
AcDbText
  0
TEXT
  5
285
100
AcDbEntity
  8
0
  6
CONTINUOUS
 62
     2
100
AcDbText
 10
99.0
 20
258.0
 30
0.0
 40
5.25
  1
タッピンネジ
 41
0.693333
  7
EXCADSTD
 72
     5
 11
125.0
 21
258.0
 31
0.0
100
AcDbText
  0
TEXT
  5
286
100
AcDbEntity
  8
0
  6
CONTINUOUS
 62
     2
100
AcDbText
 10
129.0
 20
258.0
 30
0.0
 40
5.25
  1
ステンレス
 41
0.6976
  7
EXCADSTD
 72
     5
 11
150.8
 21
258.0
 31
0.0
100
AcDbText
  0
TEXT
  5
287
100
AcDbEntity
  8
0
  6
CONTINUOUS
 62
     2
100
AcDbText
 10
162.125
 20
258.2
 30
0.0
 40
4.85
  1
８
 41
0.82268
  7
EXCADSTD
 72
     5
 11
165.925
 21
258.2
 31
0.0
100
AcDbText
  0
TEXT
  5
288
100
AcDbEntity
  8
0
  6
CONTINUOUS
 62
     2
100
AcDbText
 10
99.0
 20
270.5
 30
0.0
 40
5.25
  1
ブラケット／カバー
 41
0.545778
  7
EXCADSTD
 72
     5
 11
129.700002
 21
270.5
 31
0.0
100
AcDbText
  0
TEXT
  5
289
100
AcDbEntity
  8
0
  6
CONTINUOUS
 62
     2
100
AcDbText
 10
129.0
 20
270.5
 30
0.0
 40
5.25
  1
合成樹脂
 41
0.704
  7
EXCADSTD
 72
     5
 11
146.6
 21
270.5
 31
0.0
100
AcDbText
  0
TEXT
  5
28A
100
AcDbEntity
  8
0
  6
CONTINUOUS
 62
     2
100
AcDbText
 10
162.125
 20
264.45
 30
0.0
 40
4.85
  1
２
 41
0.82268
  7
EXCADSTD
 72
     5
 11
165.925
 21
264.45
 31
0.0
100
AcDbText
  0
TEXT
  5
28B
100
AcDbEntity
  8
0
  6
CONTINUOUS
 62
     2
100
AcDbText
 10
170.0
 20
276.75
 30
0.0
 40
5.25
  1
エンド用
 41
0.704
  7
EXCADSTD
 72
     5
 11
187.6
 21
276.75
 31
0.0
100
AcDbText
  0
TEXT
  5
28C
100
AcDbEntity
  8
0
  6
CONTINUOUS
 62
     2
100
AcDbText
 10
170.0
 20
270.5
 30
0.0
 40
5.25
  1
コーナー用
 41
0.6976
  7
EXCADSTD
 72
     5
 11
191.8
 21
270.5
 31
0.0
100
AcDbText
  0
TEXT
  5
28D
100
AcDbEntity
  8
0
  6
CONTINUOUS
 62
     6
100
AcDbText
 10
18.277607
 20
9.695007
 30
0.0
 40
2.5
  1
１３
 41
0.7728
  7
EXCADSTD
 72
     5
 11
22.493967
 21
9.695007
 31
0.0
100
AcDbText
  0
TEXT
  5
28E
100
AcDbEntity
  8
0
  6
CONTINUOUS
 62
     6
100
AcDbText
 10
23.409412
 20
9.695007
 30
0.0
 40
2.5
  1
１２
 41
0.7728
  7
EXCADSTD
 72
     5
 11
27.625772
 21
9.695007
 31
0.0
100
AcDbText
  0
TEXT
  5
28F
100
AcDbEntity
  8
0
  6
CONTINUOUS
 62
     6
100
AcDbText
 10
28.509412
 20
9.695007
 30
0.0
 40
2.5
  1
１９
 41
0.7728
  7
EXCADSTD
 72
     5
 11
32.725772
 21
9.695007
 31
0.0
100
AcDbText
  0
TEXT
  5
290
100
AcDbEntity
  8
0
  6
CONTINUOUS
 62
     6
100
AcDbText
 10
20.65
 20
17.0
 30
0.0
 40
5.0
  1
宮田
 41
0.8568
  7
EXCADSTD
 72
     5
 11
29.99932
 21
17.0
 31
0.0
100
AcDbText
  0
TEXT
  5
291
100
AcDbEntity
  8
0
  6
CONTINUOUS
 62
     7
100
AcDbText
 10
152.049999
 20
21.0
 30
0.0
 40
7.0
  1
ＮＡ１１Ａ
 41
0.5448
  7
EXCADSTD
 72
     5
 11
174.749998
 21
21.0
 31
0.0
100
AcDbText
  0
TEXT
  5
292
100
AcDbEntity
  8
0
  6
CONTINUOUS
 62
     7
100
AcDbText
 10
152.0
 20
10.0
 30
0.0
 40
7.0
  1
９１２５００
 41
0.8
  7
EXCADSTD
 72
     5
 11
192.0
 21
10.0
 31
0.0
100
AcDbText
  0
TEXT
  5
293
100
AcDbEntity
  8
0
  6
CONTINUOUS
 62
     6
100
AcDbText
 10
50.35
 20
17.0
 30
0.0
 40
5.0
  1
又場
 41
0.8568
  7
EXCADSTD
 72
     5
 11
59.69932
 21
17.0
 31
0.0
100
AcDbText
  0
TEXT
  5
294
100
AcDbEntity
  8
0
  6
CONTINUOUS
 62
     6
100
AcDbText
 10
63.35
 20
17.0
 30
0.0
 40
5.0
  1
岩田
 41
0.8568
  7
EXCADSTD
 72
     5
 11
72.69932
 21
17.0
 31
0.0
100
AcDbText
  0
LINE
  5
295
100
AcDbEntity
  8
1
  6
EXLTYPE3
 62
     1
100
AcDbLine
 10
37.9
 20
215.0
 30
0.0
 11
141.702203
 21
215.0
 31
0.0
  0
LINE
  5
296
100
AcDbEntity
  8
1
  6
EXLTYPE3
 62
     1
100
AcDbLine
 10
171.6
 20
185.4
 30
0.0
 11
171.6
 21
74.610809
 31
0.0
  0
LINE
  5
297
100
AcDbEntity
  8
1
  6
CONTINUOUS
 62
     2
100
AcDbLine
 10
136.9
 20
211.24
 30
0.0
 11
129.6
 21
211.24
 31
0.0
  0
LINE
  5
298
100
AcDbEntity
  8
1
  6
CONTINUOUS
 62
     2
100
AcDbLine
 10
129.2
 20
226.3
 30
0.0
 11
129.2
 21
211.64
 31
0.0
  0
ARC
  5
299
100
AcDbEntity
  8
1
  6
CONTINUOUS
 62
     2
100
AcDbCircle
 10
129.6
 20
211.64
 30
0.0
 40
0.4
100
AcDbArc
 50
180.0
 51
270.0
  0
LINE
  5
29A
100
AcDbEntity
  8
1
  6
CONTINUOUS
 62
     2
100
AcDbLine
 10
129.2
 20
84.2
 30
0.0
 11
129.2
 21
74.6
 31
0.0
  0
LINE
  5
29B
100
AcDbEntity
  8
1
  6
CONTINUOUS
 62
     2
100
AcDbLine
 10
132.1
 20
87.1
 30
0.0
 11
141.7
 21
87.1
 31
0.0
  0
LINE
  5
29C
100
AcDbEntity
  8
1
  6
CONTINUOUS
 62
     2
100
AcDbLine
 10
142.1
 20
86.7
 30
0.0
 11
142.1
 21
84.2
 31
0.0
  0
LINE
  5
29D
100
AcDbEntity
  8
1
  6
CONTINUOUS
 62
     2
100
AcDbLine
 10
129.6
 20
74.2
 30
0.0
 11
132.1
 21
74.2
 31
0.0
  0
ARC
  5
29E
100
AcDbEntity
  8
1
  6
CONTINUOUS
 62
     2
100
AcDbCircle
 10
129.6
 20
84.2
 30
0.0
 40
0.4
100
AcDbArc
 50
101.466313
 51
180.0
  0
ARC
  5
29F
100
AcDbEntity
  8
1
  6
CONTINUOUS
 62
     2
100
AcDbCircle
 10
132.1
 20
86.7
 30
0.0
 40
0.4
100
AcDbArc
 50
90.0
 51
168.533687
  0
ARC
  5
2A0
100
AcDbEntity
  8
1
  6
CONTINUOUS
 62
     2
100
AcDbCircle
 10
141.7
 20
86.7
 30
0.0
 40
0.4
100
AcDbArc
 50
0.0
 51
90.0
  0
ARC
  5
2A1
100
AcDbEntity
  8
1
  6
CONTINUOUS
 62
     2
100
AcDbCircle
 10
129.6
 20
74.6
 30
0.0
 40
0.4
100
AcDbArc
 50
180.0
 51
270.0
  0
ARC
  5
2A2
100
AcDbEntity
  8
1
  6
CONTINUOUS
 62
     2
100
AcDbCircle
 10
128.963866
 20
87.336134
 30
0.0
 40
2.8
100
AcDbArc
 50
281.466313
 51
348.533687
  0
ARC
  5
2A3
100
AcDbEntity
  8
1
  6
CONTINUOUS
 62
     2
100
AcDbCircle
 10
132.1
 20
84.2
 30
0.0
 40
10.0
100
AcDbArc
 50
270.0
 51
0.0
  0
LINE
  5
2A4
100
AcDbEntity
  8
1
  6
CONTINUOUS
 62
     2
100
AcDbLine
 10
133.9
 20
174.4
 30
0.0
 11
133.9
 21
129.7
 31
0.0
  0
LINE
  5
2A5
100
AcDbEntity
  8
1
  6
CONTINUOUS
 62
     2
100
AcDbLine
 10
133.9
 20
129.1
 30
0.0
 11
133.9
 21
87.1
 31
0.0
  0
LINE
  5
2A6
100
AcDbEntity
  8
1
  6
CONTINUOUS
 62
     2
100
AcDbLine
 10
139.9
 20
87.1
 30
0.0
 11
139.9
 21
129.1
 31
0.0
  0
LINE
  5
2A7
100
AcDbEntity
  8
1
  6
CONTINUOUS
 62
     2
100
AcDbLine
 10
139.9
 20
129.7
 30
0.0
 11
139.9
 21
174.4
 31
0.0
  0
LINE
  5
2A8
100
AcDbEntity
  8
1
  6
CONTINUOUS
 62
     2
100
AcDbLine
 10
41.9
 20
82.4
 30
0.0
 11
86.6
 21
82.4
 31
0.0
  0
LINE
  5
2A9
100
AcDbEntity
  8
1
  6
CONTINUOUS
 62
     2
100
AcDbLine
 10
87.2
 20
82.4
 30
0.0
 11
129.2
 21
82.4
 31
0.0
  0
LINE
  5
2AA
100
AcDbEntity
  8
1
  6
CONTINUOUS
 62
     2
100
AcDbLine
 10
41.9
 20
76.4
 30
0.0
 11
86.6
 21
76.4
 31
0.0
  0
LINE
  5
2AB
100
AcDbEntity
  8
1
  6
CONTINUOUS
 62
     2
100
AcDbLine
 10
87.2
 20
76.4
 30
0.0
 11
129.2
 21
76.4
 31
0.0
  0
LINE
  5
2AC
100
AcDbEntity
  8
1
  6
CONTINUOUS
 62
     2
100
AcDbLine
 10
127.7
 20
218.0
 30
0.0
 11
129.2
 21
218.0
 31
0.0
  0
LINE
  5
2AD
100
AcDbEntity
  8
1
  6
CONTINUOUS
 62
     2
100
AcDbLine
 10
46.1
 20
218.0
 30
0.0
 11
43.7
 21
218.0
 31
0.0
  0
LINE
  5
2AE
100
AcDbEntity
  8
1
  6
CONTINUOUS
 62
     2
100
AcDbLine
 10
42.1
 20
218.0
 30
0.0
 11
41.9
 21
218.0
 31
0.0
  0
LINE
  5
2AF
100
AcDbEntity
  8
1
  6
CONTINUOUS
 62
     2
100
AcDbLine
 10
174.6
 20
88.6
 30
0.0
 11
174.6
 21
87.1
 31
0.0
  0
LINE
  5
2B0
100
AcDbEntity
  8
1
  6
CONTINUOUS
 62
     2
100
AcDbLine
 10
174.6
 20
170.2
 30
0.0
 11
174.6
 21
172.6
 31
0.0
  0
LINE
  5
2B1
100
AcDbEntity
  8
1
  6
CONTINUOUS
 62
     2
100
AcDbLine
 10
174.6
 20
174.2
 30
0.0
 11
174.6
 21
174.4
 31
0.0
  0
LINE
  5
2B2
100
AcDbEntity
  8
1
  6
EXLTYPE3
 62
     1
100
AcDbLine
 10
30.4
 20
79.4
 30
0.0
 11
140.872685
 21
79.4
 31
0.0
  0
LINE
  5
2B3
100
AcDbEntity
  8
1
  6
EXLTYPE3
 62
     1
100
AcDbLine
 10
166.84
 20
79.4
 30
0.0
 11
182.9
 21
79.4
 31
0.0
  0
LINE
  5
2B4
100
AcDbEntity
  8
1
  6
EXLTYPE3
 62
     1
100
AcDbLine
 10
129.9
 20
179.4
 30
0.0
 11
143.9
 21
179.4
 31
0.0
  0
LINE
  5
2B5
100
AcDbEntity
  8
1
  6
EXLTYPE3
 62
     1
100
AcDbLine
 10
166.84
 20
179.4
 30
0.0
 11
182.9
 21
179.4
 31
0.0
  0
LINE
  5
2B6
100
AcDbEntity
  8
1
  6
EXLTYPE3
 62
     1
100
AcDbLine
 10
36.9
 20
226.3
 30
0.0
 11
36.9
 21
209.74
 31
0.0
  0
LINE
  5
2B7
100
AcDbEntity
  8
1
  6
EXLTYPE3
 62
     1
100
AcDbLine
 10
36.9
 20
86.4
 30
0.0
 11
36.9
 21
72.4
 31
0.0
  0
LINE
  5
2B8
100
AcDbEntity
  8
1
  6
EXLTYPE3
 62
     1
100
AcDbLine
 10
136.9
 20
226.3
 30
0.0
 11
136.9
 21
209.74
 31
0.0
  0
LINE
  5
2B9
100
AcDbEntity
  8
1
  6
EXLTYPE3
 62
     1
100
AcDbLine
 10
136.9
 20
185.9
 30
0.0
 11
136.9
 21
75.427315
 31
0.0
  0
LINE
  5
2BA
100
AcDbEntity
  8
1
  6
CONTINUOUS
 62
     2
100
AcDbLine
 10
182.9
 20
87.1
 30
0.0
 11
182.9
 21
74.2
 31
0.0
  0
LINE
  5
2BB
100
AcDbEntity
  8
1
  6
CONTINUOUS
 62
     2
100
AcDbLine
 10
167.84
 20
86.7
 30
0.0
 11
167.84
 21
79.4
 31
0.0
  0
LINE
  5
2BC
100
AcDbEntity
  8
1
  6
CONTINUOUS
 62
     2
100
AcDbLine
 10
168.24
 20
87.1
 30
0.0
 11
182.9
 21
87.1
 31
0.0
  0
ARC
  5
2BD
100
AcDbEntity
  8
1
  6
CONTINUOUS
 62
     2
100
AcDbCircle
 10
168.24
 20
86.7
 30
0.0
 40
0.4
100
AcDbArc
 50
90.0
 51
180.0
  0
ARC
  5
2BE
100
AcDbEntity
  8
1
  6
CONTINUOUS
 62
     2
100
AcDbCircle
 10
171.6
 20
79.4
 30
0.0
 40
3.76
100
AcDbArc
 50
180.0
 51
262.883428
  0
LINE
  5
2BF
100
AcDbEntity
  8
1
  6
CONTINUOUS
 62
     2
100
AcDbLine
 10
182.9
 20
74.2
 30
0.0
 11
171.134179
 21
75.668966
 31
0.0
  0
LINE
  5
2C0
100
AcDbEntity
  8
1
  6
EXLTYPE3
 62
     1
100
AcDbLine
 10
131.9
 20
82.4
 30
0.0
 11
135.9
 21
82.4
 31
0.0
  0
LINE
  5
2C1
100
AcDbEntity
  8
1
  6
CONTINUOUS
 62
     2
100
AcDbLine
 10
41.9
 20
84.5
 30
0.0
 11
41.9
 21
74.3
 31
0.0
  0
LINE
  5
2C2
100
AcDbEntity
  8
1
  6
CONTINUOUS
 62
     2
100
AcDbLine
 10
31.9
 20
82.9
 30
0.0
 11
31.9
 21
75.9
 31
0.0
  0
LINE
  5
2C3
100
AcDbEntity
  8
1
  6
CONTINUOUS
 62
     2
100
AcDbLine
 10
33.9
 20
84.9
 30
0.0
 11
41.5
 21
84.9
 31
0.0
  0
LINE
  5
2C4
100
AcDbEntity
  8
1
  6
CONTINUOUS
 62
     2
100
AcDbLine
 10
33.9
 20
73.9
 30
0.0
 11
41.5
 21
73.9
 31
0.0
  0
LINE
  5
2C5
100
AcDbEntity
  8
1
  6
CONTINUOUS
 62
     4
100
AcDbLine
 10
33.9
 20
83.2
 30
0.0
 11
41.5
 21
83.2
 31
0.0
  0
LINE
  5
2C6
100
AcDbEntity
  8
1
  6
CONTINUOUS
 62
     4
100
AcDbLine
 10
33.9
 20
75.8
 30
0.0
 11
41.5
 21
75.8
 31
0.0
  0
ARC
  5
2C7
100
AcDbEntity
  8
1
  6
CONTINUOUS
 62
     2
100
AcDbCircle
 10
33.9
 20
82.9
 30
0.0
 40
2.0
100
AcDbArc
 50
90.0
 51
180.0
  0
ARC
  5
2C8
100
AcDbEntity
  8
1
  6
CONTINUOUS
 62
     2
100
AcDbCircle
 10
33.9
 20
75.9
 30
0.0
 40
2.0
100
AcDbArc
 50
180.0
 51
270.0
  0
ARC
  5
2C9
100
AcDbEntity
  8
1
  6
CONTINUOUS
 62
     2
100
AcDbCircle
 10
41.5
 20
84.5
 30
0.0
 40
0.4
100
AcDbArc
 50
0.0
 51
90.0
  0
ARC
  5
2CA
100
AcDbEntity
  8
1
  6
CONTINUOUS
 62
     2
100
AcDbCircle
 10
41.5
 20
74.3
 30
0.0
 40
0.4
100
AcDbArc
 50
270.0
 51
0.0
  0
ARC
  5
2CB
100
AcDbEntity
  8
1
  6
CONTINUOUS
 62
     4
100
AcDbCircle
 10
33.9
 20
81.2
 30
0.0
 40
2.0
100
AcDbArc
 50
90.0
 51
180.0
  0
ARC
  5
2CC
100
AcDbEntity
  8
1
  6
CONTINUOUS
 62
     4
100
AcDbCircle
 10
33.9
 20
77.8
 30
0.0
 40
2.0
100
AcDbArc
 50
180.0
 51
270.0
  0
ARC
  5
2CD
100
AcDbEntity
  8
1
  6
CONTINUOUS
 62
     4
100
AcDbCircle
 10
41.5
 20
82.8
 30
0.0
 40
0.4
100
AcDbArc
 50
0.0
 51
90.0
  0
ARC
  5
2CE
100
AcDbEntity
  8
1
  6
CONTINUOUS
 62
     4
100
AcDbCircle
 10
41.5
 20
76.2
 30
0.0
 40
0.4
100
AcDbArc
 50
270.0
 51
0.0
  0
LINE
  5
2CF
100
AcDbEntity
  8
1
  6
EXLTYPE3
 62
     1
100
AcDbLine
 10
34.9
 20
82.6
 30
0.0
 11
38.9
 21
82.6
 31
0.0
  0
LINE
  5
2D0
100
AcDbEntity
  8
1
  6
EXLTYPE3
 62
     1
100
AcDbLine
 10
34.9
 20
76.2
 30
0.0
 11
38.9
 21
76.2
 31
0.0
  0
LINE
  5
2D1
100
AcDbEntity
  8
1
  6
EXLTYPE3
 62
     1
100
AcDbLine
 10
33.9
 20
81.4
 30
0.0
 11
33.9
 21
77.4
 31
0.0
  0
LINE
  5
2D2
100
AcDbEntity
  8
1
  6
CONTINUOUS
 62
     2
100
AcDbLine
 10
142.0
 20
174.4
 30
0.0
 11
131.8
 21
174.4
 31
0.0
  0
LINE
  5
2D3
100
AcDbEntity
  8
1
  6
CONTINUOUS
 62
     2
100
AcDbLine
 10
140.4
 20
184.4
 30
0.0
 11
133.4
 21
184.4
 31
0.0
  0
LINE
  5
2D4
100
AcDbEntity
  8
1
  6
CONTINUOUS
 62
     2
100
AcDbLine
 10
142.4
 20
182.4
 30
0.0
 11
142.4
 21
174.8
 31
0.0
  0
LINE
  5
2D5
100
AcDbEntity
  8
1
  6
CONTINUOUS
 62
     2
100
AcDbLine
 10
131.4
 20
182.4
 30
0.0
 11
131.4
 21
174.8
 31
0.0
  0
LINE
  5
2D6
100
AcDbEntity
  8
1
  6
CONTINUOUS
 62
     4
100
AcDbLine
 10
140.7
 20
182.4
 30
0.0
 11
140.7
 21
174.8
 31
0.0
  0
LINE
  5
2D7
100
AcDbEntity
  8
1
  6
CONTINUOUS
 62
     4
100
AcDbLine
 10
133.3
 20
182.4
 30
0.0
 11
133.3
 21
174.8
 31
0.0
  0
ARC
  5
2D8
100
AcDbEntity
  8
1
  6
CONTINUOUS
 62
     2
100
AcDbCircle
 10
140.4
 20
182.4
 30
0.0
 40
2.0
100
AcDbArc
 50
0.0
 51
90.0
  0
ARC
  5
2D9
100
AcDbEntity
  8
1
  6
CONTINUOUS
 62
     2
100
AcDbCircle
 10
133.4
 20
182.4
 30
0.0
 40
2.0
100
AcDbArc
 50
90.0
 51
180.0
  0
ARC
  5
2DA
100
AcDbEntity
  8
1
  6
CONTINUOUS
 62
     2
100
AcDbCircle
 10
142.0
 20
174.8
 30
0.0
 40
0.4
100
AcDbArc
 50
270.0
 51
0.0
  0
ARC
  5
2DB
100
AcDbEntity
  8
1
  6
CONTINUOUS
 62
     2
100
AcDbCircle
 10
131.8
 20
174.8
 30
0.0
 40
0.4
100
AcDbArc
 50
180.0
 51
270.0
  0
ARC
  5
2DC
100
AcDbEntity
  8
1
  6
CONTINUOUS
 62
     4
100
AcDbCircle
 10
138.7
 20
182.4
 30
0.0
 40
2.0
100
AcDbArc
 50
0.0
 51
90.0
  0
ARC
  5
2DD
100
AcDbEntity
  8
1
  6
CONTINUOUS
 62
     4
100
AcDbCircle
 10
135.3
 20
182.4
 30
0.0
 40
2.0
100
AcDbArc
 50
90.0
 51
180.0
  0
ARC
  5
2DE
100
AcDbEntity
  8
1
  6
CONTINUOUS
 62
     4
100
AcDbCircle
 10
140.3
 20
174.8
 30
0.0
 40
0.4
100
AcDbArc
 50
270.0
 51
0.0
  0
ARC
  5
2DF
100
AcDbEntity
  8
1
  6
CONTINUOUS
 62
     4
100
AcDbCircle
 10
133.7
 20
174.8
 30
0.0
 40
0.4
100
AcDbArc
 50
180.0
 51
270.0
  0
LINE
  5
2E0
100
AcDbEntity
  8
1
  6
EXLTYPE3
 62
     1
100
AcDbLine
 10
140.1
 20
181.4
 30
0.0
 11
140.1
 21
177.4
 31
0.0
  0
LINE
  5
2E1
100
AcDbEntity
  8
1
  6
EXLTYPE3
 62
     1
100
AcDbLine
 10
133.7
 20
181.4
 30
0.0
 11
133.7
 21
177.4
 31
0.0
  0
LINE
  5
2E2
100
AcDbEntity
  8
1
  6
EXLTYPE3
 62
     1
100
AcDbLine
 10
138.9
 20
182.4
 30
0.0
 11
134.9
 21
182.4
 31
0.0
  0
LINE
  5
2E3
100
AcDbEntity
  8
1
  6
CONTINUOUS
 62
     6
100
AcDbLine
 10
33.9
 20
235.7
 30
0.0
 11
33.5
 21
234.713333
 31
0.0
  0
LINE
  5
2E4
100
AcDbEntity
  8
1
  6
CONTINUOUS
 62
     6
100
AcDbLine
 10
33.9
 20
235.7
 30
0.0
 11
34.3
 21
234.713333
 31
0.0
  0
LINE
  5
2E5
100
AcDbEntity
  8
1
  6
CONTINUOUS
 62
     6
100
AcDbLine
 10
33.66914
 20
235.377213
 30
0.0
 11
34.098592
 21
235.456807
 31
0.0
  0
LINE
  5
2E6
100
AcDbEntity
  8
1
  6
CONTINUOUS
 62
     2
100
AcDbLine
 10
41.9
 20
211.64
 30
0.0
 11
41.9
 21
226.3
 31
0.0
  0
LINE
  5
2E7
100
AcDbEntity
  8
1
  6
CONTINUOUS
 62
     2
100
AcDbLine
 10
31.9
 20
213.24
 30
0.0
 11
31.9
 21
226.3
 31
0.0
  0
LINE
  5
2E8
100
AcDbEntity
  8
1
  6
CONTINUOUS
 62
     2
100
AcDbLine
 10
31.9
 20
226.3
 30
0.0
 11
41.9
 21
226.3
 31
0.0
  0
LINE
  5
2E9
100
AcDbEntity
  8
1
  6
CONTINUOUS
 62
     2
100
AcDbLine
 10
33.9
 20
211.24
 30
0.0
 11
41.5
 21
211.24
 31
0.0
  0
ARC
  5
2EA
100
AcDbEntity
  8
1
  6
CONTINUOUS
 62
     2
100
AcDbCircle
 10
33.9
 20
213.24
 30
0.0
 40
2.0
100
AcDbArc
 50
180.0
 51
270.0
  0
ARC
  5
2EB
100
AcDbEntity
  8
1
  6
CONTINUOUS
 62
     2
100
AcDbCircle
 10
41.5
 20
211.64
 30
0.0
 40
0.4
100
AcDbArc
 50
270.0
 51
0.0
  0
LINE
  5
2EC
100
AcDbEntity
  8
1
  6
CONTINUOUS
 62
     6
100
AcDbLine
 10
33.5
 20
234.713333
 30
0.0
 11
33.5
 21
226.3
 31
0.0
  0
LINE
  5
2ED
100
AcDbEntity
  8
1
  6
CONTINUOUS
 62
     6
100
AcDbLine
 10
34.3
 20
234.713333
 30
0.0
 11
34.3
 21
226.3
 31
0.0
  0
LINE
  5
2EE
100
AcDbEntity
  8
1
  6
CONTINUOUS
 62
     6
100
AcDbLine
 10
33.48227
 20
234.935766
 30
0.0
 11
34.259342
 21
235.079788
 31
0.0
  0
LINE
  5
2EF
100
AcDbEntity
  8
1
  6
CONTINUOUS
 62
     6
100
AcDbLine
 10
33.4
 20
234.513706
 30
0.0
 11
34.4
 21
234.699045
 31
0.0
  0
LINE
  5
2F0
100
AcDbEntity
  8
1
  6
CONTINUOUS
 62
     6
100
AcDbLine
 10
33.4
 20
234.106894
 30
0.0
 11
34.4
 21
234.292233
 31
0.0
  0
LINE
  5
2F1
100
AcDbEntity
  8
1
  6
CONTINUOUS
 62
     6
100
AcDbLine
 10
33.4
 20
233.700082
 30
0.0
 11
34.390169
 21
233.883599
 31
0.0
  0
LINE
  5
2F2
100
AcDbEntity
  8
1
  6
CONTINUOUS
 62
     6
100
AcDbLine
 10
33.4
 20
233.29327
 30
0.0
 11
34.4
 21
233.478609
 31
0.0
  0
LINE
  5
2F3
100
AcDbEntity
  8
1
  6
CONTINUOUS
 62
     6
100
AcDbLine
 10
33.4
 20
232.886458
 30
0.0
 11
34.4
 21
233.071797
 31
0.0
  0
LINE
  5
2F4
100
AcDbEntity
  8
1
  6
CONTINUOUS
 62
     6
100
AcDbLine
 10
33.4
 20
232.479646
 30
0.0
 11
34.4
 21
232.664985
 31
0.0
  0
LINE
  5
2F5
100
AcDbEntity
  8
1
  6
CONTINUOUS
 62
     6
100
AcDbLine
 10
33.4
 20
232.072834
 30
0.0
 11
34.4
 21
232.258173
 31
0.0
  0
LINE
  5
2F6
100
AcDbEntity
  8
1
  6
CONTINUOUS
 62
     6
100
AcDbLine
 10
33.4
 20
231.666022
 30
0.0
 11
34.4
 21
231.851361
 31
0.0
  0
LINE
  5
2F7
100
AcDbEntity
  8
1
  6
CONTINUOUS
 62
     6
100
AcDbLine
 10
33.4
 20
231.259209
 30
0.0
 11
34.4
 21
231.444548
 31
0.0
  0
LINE
  5
2F8
100
AcDbEntity
  8
1
  6
CONTINUOUS
 62
     6
100
AcDbLine
 10
33.4
 20
230.852397
 30
0.0
 11
34.4
 21
231.037736
 31
0.0
  0
LINE
  5
2F9
100
AcDbEntity
  8
1
  6
CONTINUOUS
 62
     6
100
AcDbLine
 10
33.4
 20
230.445585
 30
0.0
 11
34.4
 21
230.630924
 31
0.0
  0
LINE
  5
2FA
100
AcDbEntity
  8
1
  6
CONTINUOUS
 62
     6
100
AcDbLine
 10
33.4
 20
230.038773
 30
0.0
 11
34.4
 21
230.224112
 31
0.0
  0
LINE
  5
2FB
100
AcDbEntity
  8
1
  6
CONTINUOUS
 62
     6
100
AcDbLine
 10
33.4
 20
229.631961
 30
0.0
 11
34.4
 21
229.8173
 31
0.0
  0
LINE
  5
2FC
100
AcDbEntity
  8
1
  6
CONTINUOUS
 62
     6
100
AcDbLine
 10
33.4
 20
229.225149
 30
0.0
 11
34.4
 21
229.410488
 31
0.0
  0
LINE
  5
2FD
100
AcDbEntity
  8
1
  6
CONTINUOUS
 62
     6
100
AcDbLine
 10
33.4
 20
228.818337
 30
0.0
 11
34.4
 21
229.003676
 31
0.0
  0
LINE
  5
2FE
100
AcDbEntity
  8
1
  6
CONTINUOUS
 62
     6
100
AcDbLine
 10
33.4
 20
228.411525
 30
0.0
 11
34.4
 21
228.596864
 31
0.0
  0
LINE
  5
2FF
100
AcDbEntity
  8
1
  6
CONTINUOUS
 62
     6
100
AcDbLine
 10
33.4
 20
228.004713
 30
0.0
 11
34.4
 21
228.190052
 31
0.0
  0
LINE
  5
300
100
AcDbEntity
  8
1
  6
CONTINUOUS
 62
     6
100
AcDbLine
 10
33.4
 20
227.5979
 30
0.0
 11
34.4
 21
227.78324
 31
0.0
  0
LINE
  5
301
100
AcDbEntity
  8
1
  6
CONTINUOUS
 62
     6
100
AcDbLine
 10
33.4
 20
227.191088
 30
0.0
 11
34.4
 21
227.376427
 31
0.0
  0
LINE
  5
302
100
AcDbEntity
  8
1
  6
CONTINUOUS
 62
     6
100
AcDbLine
 10
33.4
 20
226.784276
 30
0.0
 11
34.4
 21
226.969615
 31
0.0
  0
LINE
  5
303
100
AcDbEntity
  8
1
  6
CONTINUOUS
 62
     6
100
AcDbLine
 10
33.4
 20
226.377464
 30
0.0
 11
34.4
 21
226.562803
 31
0.0
  0
LINE
  5
304
100
AcDbEntity
  8
1
  6
CONTINUOUS
 62
     6
100
AcDbLine
 10
36.9
 20
235.7
 30
0.0
 11
36.5
 21
234.713333
 31
0.0
  0
LINE
  5
305
100
AcDbEntity
  8
1
  6
CONTINUOUS
 62
     6
100
AcDbLine
 10
36.9
 20
235.7
 30
0.0
 11
37.3
 21
234.713333
 31
0.0
  0
LINE
  5
306
100
AcDbEntity
  8
1
  6
CONTINUOUS
 62
     6
100
AcDbLine
 10
36.66914
 20
235.377213
 30
0.0
 11
37.098592
 21
235.456807
 31
0.0
  0
LINE
  5
307
100
AcDbEntity
  8
1
  6
CONTINUOUS
 62
     6
100
AcDbLine
 10
36.5
 20
234.713333
 30
0.0
 11
36.5
 21
226.3
 31
0.0
  0
LINE
  5
308
100
AcDbEntity
  8
1
  6
CONTINUOUS
 62
     6
100
AcDbLine
 10
37.3
 20
234.713333
 30
0.0
 11
37.3
 21
226.3
 31
0.0
  0
LINE
  5
309
100
AcDbEntity
  8
1
  6
CONTINUOUS
 62
     6
100
AcDbLine
 10
36.48227
 20
234.935766
 30
0.0
 11
37.259342
 21
235.079788
 31
0.0
  0
LINE
  5
30A
100
AcDbEntity
  8
1
  6
CONTINUOUS
 62
     6
100
AcDbLine
 10
36.4
 20
234.513706
 30
0.0
 11
37.4
 21
234.699045
 31
0.0
  0
LINE
  5
30B
100
AcDbEntity
  8
1
  6
CONTINUOUS
 62
     6
100
AcDbLine
 10
36.4
 20
234.106894
 30
0.0
 11
37.4
 21
234.292233
 31
0.0
  0
LINE
  5
30C
100
AcDbEntity
  8
1
  6
CONTINUOUS
 62
     6
100
AcDbLine
 10
36.4
 20
233.700082
 30
0.0
 11
37.390169
 21
233.883599
 31
0.0
  0
LINE
  5
30D
100
AcDbEntity
  8
1
  6
CONTINUOUS
 62
     6
100
AcDbLine
 10
36.4
 20
233.29327
 30
0.0
 11
37.4
 21
233.478609
 31
0.0
  0
LINE
  5
30E
100
AcDbEntity
  8
1
  6
CONTINUOUS
 62
     6
100
AcDbLine
 10
36.4
 20
232.886458
 30
0.0
 11
37.4
 21
233.071797
 31
0.0
  0
LINE
  5
30F
100
AcDbEntity
  8
1
  6
CONTINUOUS
 62
     6
100
AcDbLine
 10
36.4
 20
232.479646
 30
0.0
 11
37.4
 21
232.664985
 31
0.0
  0
LINE
  5
310
100
AcDbEntity
  8
1
  6
CONTINUOUS
 62
     6
100
AcDbLine
 10
36.4
 20
232.072834
 30
0.0
 11
37.4
 21
232.258173
 31
0.0
  0
LINE
  5
311
100
AcDbEntity
  8
1
  6
CONTINUOUS
 62
     6
100
AcDbLine
 10
36.4
 20
231.666022
 30
0.0
 11
37.4
 21
231.851361
 31
0.0
  0
LINE
  5
312
100
AcDbEntity
  8
1
  6
CONTINUOUS
 62
     6
100
AcDbLine
 10
36.4
 20
231.259209
 30
0.0
 11
37.4
 21
231.444548
 31
0.0
  0
LINE
  5
313
100
AcDbEntity
  8
1
  6
CONTINUOUS
 62
     6
100
AcDbLine
 10
36.4
 20
230.852397
 30
0.0
 11
37.4
 21
231.037736
 31
0.0
  0
LINE
  5
314
100
AcDbEntity
  8
1
  6
CONTINUOUS
 62
     6
100
AcDbLine
 10
36.4
 20
230.445585
 30
0.0
 11
37.4
 21
230.630924
 31
0.0
  0
LINE
  5
315
100
AcDbEntity
  8
1
  6
CONTINUOUS
 62
     6
100
AcDbLine
 10
36.4
 20
230.038773
 30
0.0
 11
37.4
 21
230.224112
 31
0.0
  0
LINE
  5
316
100
AcDbEntity
  8
1
  6
CONTINUOUS
 62
     6
100
AcDbLine
 10
36.4
 20
229.631961
 30
0.0
 11
37.4
 21
229.8173
 31
0.0
  0
LINE
  5
317
100
AcDbEntity
  8
1
  6
CONTINUOUS
 62
     6
100
AcDbLine
 10
36.4
 20
229.225149
 30
0.0
 11
37.4
 21
229.410488
 31
0.0
  0
LINE
  5
318
100
AcDbEntity
  8
1
  6
CONTINUOUS
 62
     6
100
AcDbLine
 10
36.4
 20
228.818337
 30
0.0
 11
37.4
 21
229.003676
 31
0.0
  0
LINE
  5
319
100
AcDbEntity
  8
1
  6
CONTINUOUS
 62
     6
100
AcDbLine
 10
36.4
 20
228.411525
 30
0.0
 11
37.4
 21
228.596864
 31
0.0
  0
LINE
  5
31A
100
AcDbEntity
  8
1
  6
CONTINUOUS
 62
     6
100
AcDbLine
 10
36.4
 20
228.004713
 30
0.0
 11
37.4
 21
228.190052
 31
0.0
  0
LINE
  5
31B
100
AcDbEntity
  8
1
  6
CONTINUOUS
 62
     6
100
AcDbLine
 10
36.4
 20
227.5979
 30
0.0
 11
37.4
 21
227.78324
 31
0.0
  0
LINE
  5
31C
100
AcDbEntity
  8
1
  6
CONTINUOUS
 62
     6
100
AcDbLine
 10
36.4
 20
227.191088
 30
0.0
 11
37.4
 21
227.376427
 31
0.0
  0
LINE
  5
31D
100
AcDbEntity
  8
1
  6
CONTINUOUS
 62
     6
100
AcDbLine
 10
36.4
 20
226.784276
 30
0.0
 11
37.4
 21
226.969615
 31
0.0
  0
LINE
  5
31E
100
AcDbEntity
  8
1
  6
CONTINUOUS
 62
     6
100
AcDbLine
 10
36.4
 20
226.377464
 30
0.0
 11
37.4
 21
226.562803
 31
0.0
  0
LINE
  5
31F
100
AcDbEntity
  8
1
  6
CONTINUOUS
 62
     2
100
AcDbLine
 10
142.4
 20
226.3
 30
0.0
 11
129.2
 21
226.3
 31
0.0
  0
ARC
  5
320
100
AcDbEntity
  8
1
  6
CONTINUOUS
 62
     4
100
AcDbCircle
 10
82.891901
 20
216.5
 30
0.0
 40
4.0
100
AcDbArc
 50
337.975687
 51
21.100196
  0
ARC
  5
321
100
AcDbEntity
  8
1
  6
CONTINUOUS
 62
     4
100
AcDbCircle
 10
90.308099
 20
213.5
 30
0.0
 40
4.0
100
AcDbArc
 50
157.975687
 51
202.024313
  0
ARC
  5
322
100
AcDbEntity
  8
1
  6
CONTINUOUS
 62
     4
100
AcDbCircle
 10
83.491901
 20
216.5
 30
0.0
 40
4.0
100
AcDbArc
 50
337.975687
 51
21.100196
  0
ARC
  5
323
100
AcDbEntity
  8
1
  6
CONTINUOUS
 62
     4
100
AcDbCircle
 10
90.908099
 20
213.5
 30
0.0
 40
4.0
100
AcDbArc
 50
157.975687
 51
202.024313
  0
LINE
  5
324
100
AcDbEntity
  8
1
  6
CONTINUOUS
 62
     2
100
AcDbLine
 10
41.9
 20
212.0
 30
0.0
 11
86.6
 21
212.0
 31
0.0
  0
LINE
  5
325
100
AcDbEntity
  8
1
  6
CONTINUOUS
 62
     2
100
AcDbLine
 10
87.2
 20
212.0
 30
0.0
 11
129.2
 21
212.0
 31
0.0
  0
LINE
  5
326
100
AcDbEntity
  8
1
  6
CONTINUOUS
 62
     4
100
AcDbLine
 10
74.1
 20
218.0
 30
0.0
 11
74.1
 21
217.84
 31
0.0
  0
LINE
  5
327
100
AcDbEntity
  8
1
  6
CONTINUOUS
 62
     4
100
AcDbLine
 10
75.7
 20
218.0
 30
0.0
 11
75.7
 21
217.84
 31
0.0
  0
LINE
  5
328
100
AcDbEntity
  8
1
  6
CONTINUOUS
 62
     4
100
AcDbLine
 10
74.1
 20
217.94
 30
0.0
 11
75.7
 21
217.94
 31
0.0
  0
LINE
  5
329
100
AcDbEntity
  8
1
  6
CONTINUOUS
 62
     4
100
AcDbLine
 10
74.1
 20
217.84
 30
0.0
 11
74.808938
 21
217.614154
 31
0.0
  0
LINE
  5
32A
100
AcDbEntity
  8
1
  6
CONTINUOUS
 62
     4
100
AcDbLine
 10
75.7
 20
217.84
 30
0.0
 11
74.991062
 21
217.614154
 31
0.0
  0
ARC
  5
32B
100
AcDbEntity
  8
1
  6
CONTINUOUS
 62
     4
100
AcDbCircle
 10
74.9
 20
217.9
 30
0.0
 40
0.3
100
AcDbArc
 50
252.329738
 51
287.670262
  0
LINE
  5
32C
100
AcDbEntity
  8
1
  6
CONTINUOUS
 62
     4
100
AcDbLine
 10
70.1
 20
218.0
 30
0.0
 11
70.1
 21
217.84
 31
0.0
  0
LINE
  5
32D
100
AcDbEntity
  8
1
  6
CONTINUOUS
 62
     4
100
AcDbLine
 10
71.7
 20
218.0
 30
0.0
 11
71.7
 21
217.84
 31
0.0
  0
LINE
  5
32E
100
AcDbEntity
  8
1
  6
CONTINUOUS
 62
     4
100
AcDbLine
 10
70.1
 20
217.94
 30
0.0
 11
71.7
 21
217.94
 31
0.0
  0
LINE
  5
32F
100
AcDbEntity
  8
1
  6
CONTINUOUS
 62
     4
100
AcDbLine
 10
70.1
 20
217.84
 30
0.0
 11
70.808938
 21
217.614154
 31
0.0
  0
LINE
  5
330
100
AcDbEntity
  8
1
  6
CONTINUOUS
 62
     4
100
AcDbLine
 10
71.7
 20
217.84
 30
0.0
 11
70.991062
 21
217.614154
 31
0.0
  0
ARC
  5
331
100
AcDbEntity
  8
1
  6
CONTINUOUS
 62
     4
100
AcDbCircle
 10
70.9
 20
217.9
 30
0.0
 40
0.3
100
AcDbArc
 50
252.329738
 51
287.670262
  0
LINE
  5
332
100
AcDbEntity
  8
1
  6
CONTINUOUS
 62
     4
100
AcDbLine
 10
66.1
 20
218.0
 30
0.0
 11
66.1
 21
217.84
 31
0.0
  0
LINE
  5
333
100
AcDbEntity
  8
1
  6
CONTINUOUS
 62
     4
100
AcDbLine
 10
67.7
 20
218.0
 30
0.0
 11
67.7
 21
217.84
 31
0.0
  0
LINE
  5
334
100
AcDbEntity
  8
1
  6
CONTINUOUS
 62
     4
100
AcDbLine
 10
66.1
 20
217.94
 30
0.0
 11
67.7
 21
217.94
 31
0.0
  0
LINE
  5
335
100
AcDbEntity
  8
1
  6
CONTINUOUS
 62
     4
100
AcDbLine
 10
66.1
 20
217.84
 30
0.0
 11
66.808938
 21
217.614154
 31
0.0
  0
LINE
  5
336
100
AcDbEntity
  8
1
  6
CONTINUOUS
 62
     4
100
AcDbLine
 10
67.7
 20
217.84
 30
0.0
 11
66.991062
 21
217.614154
 31
0.0
  0
ARC
  5
337
100
AcDbEntity
  8
1
  6
CONTINUOUS
 62
     4
100
AcDbCircle
 10
66.9
 20
217.9
 30
0.0
 40
0.3
100
AcDbArc
 50
252.329738
 51
287.670262
  0
LINE
  5
338
100
AcDbEntity
  8
1
  6
CONTINUOUS
 62
     4
100
AcDbLine
 10
62.1
 20
218.0
 30
0.0
 11
62.1
 21
217.84
 31
0.0
  0
LINE
  5
339
100
AcDbEntity
  8
1
  6
CONTINUOUS
 62
     4
100
AcDbLine
 10
63.7
 20
218.0
 30
0.0
 11
63.7
 21
217.84
 31
0.0
  0
LINE
  5
33A
100
AcDbEntity
  8
1
  6
CONTINUOUS
 62
     4
100
AcDbLine
 10
62.1
 20
217.94
 30
0.0
 11
63.7
 21
217.94
 31
0.0
  0
LINE
  5
33B
100
AcDbEntity
  8
1
  6
CONTINUOUS
 62
     4
100
AcDbLine
 10
62.1
 20
217.84
 30
0.0
 11
62.808938
 21
217.614154
 31
0.0
  0
LINE
  5
33C
100
AcDbEntity
  8
1
  6
CONTINUOUS
 62
     4
100
AcDbLine
 10
63.7
 20
217.84
 30
0.0
 11
62.991062
 21
217.614154
 31
0.0
  0
ARC
  5
33D
100
AcDbEntity
  8
1
  6
CONTINUOUS
 62
     4
100
AcDbCircle
 10
62.9
 20
217.9
 30
0.0
 40
0.3
100
AcDbArc
 50
252.329738
 51
287.670262
  0
LINE
  5
33E
100
AcDbEntity
  8
1
  6
CONTINUOUS
 62
     4
100
AcDbLine
 10
98.1
 20
218.0
 30
0.0
 11
98.1
 21
217.84
 31
0.0
  0
LINE
  5
33F
100
AcDbEntity
  8
1
  6
CONTINUOUS
 62
     4
100
AcDbLine
 10
99.7
 20
218.0
 30
0.0
 11
99.7
 21
217.84
 31
0.0
  0
LINE
  5
340
100
AcDbEntity
  8
1
  6
CONTINUOUS
 62
     4
100
AcDbLine
 10
98.1
 20
217.94
 30
0.0
 11
99.7
 21
217.94
 31
0.0
  0
LINE
  5
341
100
AcDbEntity
  8
1
  6
CONTINUOUS
 62
     4
100
AcDbLine
 10
98.1
 20
217.84
 30
0.0
 11
98.808938
 21
217.614154
 31
0.0
  0
LINE
  5
342
100
AcDbEntity
  8
1
  6
CONTINUOUS
 62
     4
100
AcDbLine
 10
99.7
 20
217.84
 30
0.0
 11
98.991062
 21
217.614154
 31
0.0
  0
ARC
  5
343
100
AcDbEntity
  8
1
  6
CONTINUOUS
 62
     4
100
AcDbCircle
 10
98.9
 20
217.9
 30
0.0
 40
0.3
100
AcDbArc
 50
252.329738
 51
287.670262
  0
LINE
  5
344
100
AcDbEntity
  8
1
  6
CONTINUOUS
 62
     4
100
AcDbLine
 10
102.1
 20
218.0
 30
0.0
 11
102.1
 21
217.84
 31
0.0
  0
LINE
  5
345
100
AcDbEntity
  8
1
  6
CONTINUOUS
 62
     4
100
AcDbLine
 10
103.7
 20
218.0
 30
0.0
 11
103.7
 21
217.84
 31
0.0
  0
LINE
  5
346
100
AcDbEntity
  8
1
  6
CONTINUOUS
 62
     4
100
AcDbLine
 10
102.1
 20
217.94
 30
0.0
 11
103.7
 21
217.94
 31
0.0
  0
LINE
  5
347
100
AcDbEntity
  8
1
  6
CONTINUOUS
 62
     4
100
AcDbLine
 10
102.1
 20
217.84
 30
0.0
 11
102.808938
 21
217.614154
 31
0.0
  0
LINE
  5
348
100
AcDbEntity
  8
1
  6
CONTINUOUS
 62
     4
100
AcDbLine
 10
103.7
 20
217.84
 30
0.0
 11
102.991062
 21
217.614154
 31
0.0
  0
ARC
  5
349
100
AcDbEntity
  8
1
  6
CONTINUOUS
 62
     4
100
AcDbCircle
 10
102.9
 20
217.9
 30
0.0
 40
0.3
100
AcDbArc
 50
252.329738
 51
287.670262
  0
LINE
  5
34A
100
AcDbEntity
  8
1
  6
CONTINUOUS
 62
     4
100
AcDbLine
 10
106.1
 20
218.0
 30
0.0
 11
106.1
 21
217.84
 31
0.0
  0
LINE
  5
34B
100
AcDbEntity
  8
1
  6
CONTINUOUS
 62
     4
100
AcDbLine
 10
107.7
 20
218.0
 30
0.0
 11
107.7
 21
217.84
 31
0.0
  0
LINE
  5
34C
100
AcDbEntity
  8
1
  6
CONTINUOUS
 62
     4
100
AcDbLine
 10
106.1
 20
217.94
 30
0.0
 11
107.7
 21
217.94
 31
0.0
  0
LINE
  5
34D
100
AcDbEntity
  8
1
  6
CONTINUOUS
 62
     4
100
AcDbLine
 10
106.1
 20
217.84
 30
0.0
 11
106.808938
 21
217.614154
 31
0.0
  0
LINE
  5
34E
100
AcDbEntity
  8
1
  6
CONTINUOUS
 62
     4
100
AcDbLine
 10
107.7
 20
217.84
 30
0.0
 11
106.991062
 21
217.614154
 31
0.0
  0
ARC
  5
34F
100
AcDbEntity
  8
1
  6
CONTINUOUS
 62
     4
100
AcDbCircle
 10
106.9
 20
217.9
 30
0.0
 40
0.3
100
AcDbArc
 50
252.329738
 51
287.670262
  0
LINE
  5
350
100
AcDbEntity
  8
1
  6
CONTINUOUS
 62
     4
100
AcDbLine
 10
110.1
 20
218.0
 30
0.0
 11
110.1
 21
217.84
 31
0.0
  0
LINE
  5
351
100
AcDbEntity
  8
1
  6
CONTINUOUS
 62
     4
100
AcDbLine
 10
111.7
 20
218.0
 30
0.0
 11
111.7
 21
217.84
 31
0.0
  0
LINE
  5
352
100
AcDbEntity
  8
1
  6
CONTINUOUS
 62
     4
100
AcDbLine
 10
110.1
 20
217.94
 30
0.0
 11
111.7
 21
217.94
 31
0.0
  0
LINE
  5
353
100
AcDbEntity
  8
1
  6
CONTINUOUS
 62
     4
100
AcDbLine
 10
110.1
 20
217.84
 30
0.0
 11
110.808938
 21
217.614154
 31
0.0
  0
LINE
  5
354
100
AcDbEntity
  8
1
  6
CONTINUOUS
 62
     4
100
AcDbLine
 10
111.7
 20
217.84
 30
0.0
 11
110.991062
 21
217.614154
 31
0.0
  0
ARC
  5
355
100
AcDbEntity
  8
1
  6
CONTINUOUS
 62
     4
100
AcDbCircle
 10
110.9
 20
217.9
 30
0.0
 40
0.3
100
AcDbArc
 50
252.329738
 51
287.670262
  0
LINE
  5
356
100
AcDbEntity
  8
1
  6
CONTINUOUS
 62
     2
100
AcDbLine
 10
59.7
 20
218.0
 30
0.0
 11
62.1
 21
218.0
 31
0.0
  0
LINE
  5
357
100
AcDbEntity
  8
1
  6
CONTINUOUS
 62
     2
100
AcDbLine
 10
63.7
 20
218.0
 30
0.0
 11
66.1
 21
218.0
 31
0.0
  0
LINE
  5
358
100
AcDbEntity
  8
1
  6
CONTINUOUS
 62
     2
100
AcDbLine
 10
67.7
 20
218.0
 30
0.0
 11
70.1
 21
218.0
 31
0.0
  0
LINE
  5
359
100
AcDbEntity
  8
1
  6
CONTINUOUS
 62
     2
100
AcDbLine
 10
71.7
 20
218.0
 30
0.0
 11
74.1
 21
218.0
 31
0.0
  0
LINE
  5
35A
100
AcDbEntity
  8
1
  6
CONTINUOUS
 62
     2
100
AcDbLine
 10
99.7
 20
218.0
 30
0.0
 11
102.1
 21
218.0
 31
0.0
  0
LINE
  5
35B
100
AcDbEntity
  8
1
  6
CONTINUOUS
 62
     2
100
AcDbLine
 10
103.7
 20
218.0
 30
0.0
 11
106.1
 21
218.0
 31
0.0
  0
LINE
  5
35C
100
AcDbEntity
  8
1
  6
CONTINUOUS
 62
     2
100
AcDbLine
 10
107.7
 20
218.0
 30
0.0
 11
110.1
 21
218.0
 31
0.0
  0
LINE
  5
35D
100
AcDbEntity
  8
1
  6
CONTINUOUS
 62
     2
100
AcDbLine
 10
111.7
 20
218.0
 30
0.0
 11
114.1
 21
218.0
 31
0.0
  0
LINE
  5
35E
100
AcDbEntity
  8
1
  6
CONTINUOUS
 62
     2
100
AcDbLine
 10
131.4
 20
226.3
 30
0.0
 11
133.181734
 21
214.44134
 31
0.0
  0
LINE
  5
35F
100
AcDbEntity
  8
1
  6
CONTINUOUS
 62
     2
100
AcDbLine
 10
142.4
 20
226.3
 30
0.0
 11
140.618266
 21
214.44134
 31
0.0
  0
ARC
  5
360
100
AcDbEntity
  8
1
  6
CONTINUOUS
 62
     2
100
AcDbCircle
 10
136.9
 20
215.0
 30
0.0
 40
3.76
100
AcDbArc
 50
188.544636
 51
351.455364
  0
LINE
  5
361
100
AcDbEntity
  8
1
  6
CONTINUOUS
 62
     6
100
AcDbLine
 10
133.7
 20
235.7
 30
0.0
 11
133.3
 21
234.713333
 31
0.0
  0
LINE
  5
362
100
AcDbEntity
  8
1
  6
CONTINUOUS
 62
     6
100
AcDbLine
 10
133.7
 20
235.7
 30
0.0
 11
134.1
 21
234.713333
 31
0.0
  0
LINE
  5
363
100
AcDbEntity
  8
1
  6
CONTINUOUS
 62
     6
100
AcDbLine
 10
133.46914
 20
235.377213
 30
0.0
 11
133.898592
 21
235.456807
 31
0.0
  0
LINE
  5
364
100
AcDbEntity
  8
1
  6
CONTINUOUS
 62
     6
100
AcDbLine
 10
133.3
 20
234.713333
 30
0.0
 11
133.3
 21
226.3
 31
0.0
  0
LINE
  5
365
100
AcDbEntity
  8
1
  6
CONTINUOUS
 62
     6
100
AcDbLine
 10
134.1
 20
234.713333
 30
0.0
 11
134.1
 21
226.3
 31
0.0
  0
LINE
  5
366
100
AcDbEntity
  8
1
  6
CONTINUOUS
 62
     6
100
AcDbLine
 10
133.28227
 20
234.935766
 30
0.0
 11
134.059342
 21
235.079788
 31
0.0
  0
LINE
  5
367
100
AcDbEntity
  8
1
  6
CONTINUOUS
 62
     6
100
AcDbLine
 10
133.2
 20
234.513706
 30
0.0
 11
134.2
 21
234.699045
 31
0.0
  0
LINE
  5
368
100
AcDbEntity
  8
1
  6
CONTINUOUS
 62
     6
100
AcDbLine
 10
133.2
 20
234.106894
 30
0.0
 11
134.2
 21
234.292233
 31
0.0
  0
LINE
  5
369
100
AcDbEntity
  8
1
  6
CONTINUOUS
 62
     6
100
AcDbLine
 10
133.2
 20
233.700082
 30
0.0
 11
134.190169
 21
233.883599
 31
0.0
  0
LINE
  5
36A
100
AcDbEntity
  8
1
  6
CONTINUOUS
 62
     6
100
AcDbLine
 10
133.2
 20
233.29327
 30
0.0
 11
134.2
 21
233.478609
 31
0.0
  0
LINE
  5
36B
100
AcDbEntity
  8
1
  6
CONTINUOUS
 62
     6
100
AcDbLine
 10
133.2
 20
232.886458
 30
0.0
 11
134.2
 21
233.071797
 31
0.0
  0
LINE
  5
36C
100
AcDbEntity
  8
1
  6
CONTINUOUS
 62
     6
100
AcDbLine
 10
133.2
 20
232.479646
 30
0.0
 11
134.2
 21
232.664985
 31
0.0
  0
LINE
  5
36D
100
AcDbEntity
  8
1
  6
CONTINUOUS
 62
     6
100
AcDbLine
 10
133.2
 20
232.072834
 30
0.0
 11
134.2
 21
232.258173
 31
0.0
  0
LINE
  5
36E
100
AcDbEntity
  8
1
  6
CONTINUOUS
 62
     6
100
AcDbLine
 10
133.2
 20
231.666022
 30
0.0
 11
134.2
 21
231.851361
 31
0.0
  0
LINE
  5
36F
100
AcDbEntity
  8
1
  6
CONTINUOUS
 62
     6
100
AcDbLine
 10
133.2
 20
231.259209
 30
0.0
 11
134.2
 21
231.444548
 31
0.0
  0
LINE
  5
370
100
AcDbEntity
  8
1
  6
CONTINUOUS
 62
     6
100
AcDbLine
 10
133.2
 20
230.852397
 30
0.0
 11
134.2
 21
231.037736
 31
0.0
  0
LINE
  5
371
100
AcDbEntity
  8
1
  6
CONTINUOUS
 62
     6
100
AcDbLine
 10
133.2
 20
230.445585
 30
0.0
 11
134.2
 21
230.630924
 31
0.0
  0
LINE
  5
372
100
AcDbEntity
  8
1
  6
CONTINUOUS
 62
     6
100
AcDbLine
 10
133.2
 20
230.038773
 30
0.0
 11
134.2
 21
230.224112
 31
0.0
  0
LINE
  5
373
100
AcDbEntity
  8
1
  6
CONTINUOUS
 62
     6
100
AcDbLine
 10
133.2
 20
229.631961
 30
0.0
 11
134.2
 21
229.8173
 31
0.0
  0
LINE
  5
374
100
AcDbEntity
  8
1
  6
CONTINUOUS
 62
     6
100
AcDbLine
 10
133.2
 20
229.225149
 30
0.0
 11
134.2
 21
229.410488
 31
0.0
  0
LINE
  5
375
100
AcDbEntity
  8
1
  6
CONTINUOUS
 62
     6
100
AcDbLine
 10
133.2
 20
228.818337
 30
0.0
 11
134.2
 21
229.003676
 31
0.0
  0
LINE
  5
376
100
AcDbEntity
  8
1
  6
CONTINUOUS
 62
     6
100
AcDbLine
 10
133.2
 20
228.411525
 30
0.0
 11
134.2
 21
228.596864
 31
0.0
  0
LINE
  5
377
100
AcDbEntity
  8
1
  6
CONTINUOUS
 62
     6
100
AcDbLine
 10
133.2
 20
228.004713
 30
0.0
 11
134.2
 21
228.190052
 31
0.0
  0
LINE
  5
378
100
AcDbEntity
  8
1
  6
CONTINUOUS
 62
     6
100
AcDbLine
 10
133.2
 20
227.5979
 30
0.0
 11
134.2
 21
227.78324
 31
0.0
  0
LINE
  5
379
100
AcDbEntity
  8
1
  6
CONTINUOUS
 62
     6
100
AcDbLine
 10
133.2
 20
227.191088
 30
0.0
 11
134.2
 21
227.376427
 31
0.0
  0
LINE
  5
37A
100
AcDbEntity
  8
1
  6
CONTINUOUS
 62
     6
100
AcDbLine
 10
133.2
 20
226.784276
 30
0.0
 11
134.2
 21
226.969615
 31
0.0
  0
LINE
  5
37B
100
AcDbEntity
  8
1
  6
CONTINUOUS
 62
     6
100
AcDbLine
 10
133.2
 20
226.377464
 30
0.0
 11
134.2
 21
226.562803
 31
0.0
  0
LINE
  5
37C
100
AcDbEntity
  8
1
  6
CONTINUOUS
 62
     6
100
AcDbLine
 10
136.9
 20
235.7
 30
0.0
 11
136.5
 21
234.713333
 31
0.0
  0
LINE
  5
37D
100
AcDbEntity
  8
1
  6
CONTINUOUS
 62
     6
100
AcDbLine
 10
136.9
 20
235.7
 30
0.0
 11
137.3
 21
234.713333
 31
0.0
  0
LINE
  5
37E
100
AcDbEntity
  8
1
  6
CONTINUOUS
 62
     6
100
AcDbLine
 10
136.66914
 20
235.377213
 30
0.0
 11
137.098592
 21
235.456807
 31
0.0
  0
LINE
  5
37F
100
AcDbEntity
  8
1
  6
CONTINUOUS
 62
     6
100
AcDbLine
 10
136.5
 20
234.713333
 30
0.0
 11
136.5
 21
226.3
 31
0.0
  0
LINE
  5
380
100
AcDbEntity
  8
1
  6
CONTINUOUS
 62
     6
100
AcDbLine
 10
137.3
 20
234.713333
 30
0.0
 11
137.3
 21
226.3
 31
0.0
  0
LINE
  5
381
100
AcDbEntity
  8
1
  6
CONTINUOUS
 62
     6
100
AcDbLine
 10
136.48227
 20
234.935766
 30
0.0
 11
137.259342
 21
235.079788
 31
0.0
  0
LINE
  5
382
100
AcDbEntity
  8
1
  6
CONTINUOUS
 62
     6
100
AcDbLine
 10
136.4
 20
234.513706
 30
0.0
 11
137.4
 21
234.699045
 31
0.0
  0
LINE
  5
383
100
AcDbEntity
  8
1
  6
CONTINUOUS
 62
     6
100
AcDbLine
 10
136.4
 20
234.106894
 30
0.0
 11
137.4
 21
234.292233
 31
0.0
  0
LINE
  5
384
100
AcDbEntity
  8
1
  6
CONTINUOUS
 62
     6
100
AcDbLine
 10
136.4
 20
233.700082
 30
0.0
 11
137.390169
 21
233.883599
 31
0.0
  0
LINE
  5
385
100
AcDbEntity
  8
1
  6
CONTINUOUS
 62
     6
100
AcDbLine
 10
136.4
 20
233.29327
 30
0.0
 11
137.4
 21
233.478609
 31
0.0
  0
LINE
  5
386
100
AcDbEntity
  8
1
  6
CONTINUOUS
 62
     6
100
AcDbLine
 10
136.4
 20
232.886458
 30
0.0
 11
137.4
 21
233.071797
 31
0.0
  0
LINE
  5
387
100
AcDbEntity
  8
1
  6
CONTINUOUS
 62
     6
100
AcDbLine
 10
136.4
 20
232.479646
 30
0.0
 11
137.4
 21
232.664985
 31
0.0
  0
LINE
  5
388
100
AcDbEntity
  8
1
  6
CONTINUOUS
 62
     6
100
AcDbLine
 10
136.4
 20
232.072834
 30
0.0
 11
137.4
 21
232.258173
 31
0.0
  0
LINE
  5
389
100
AcDbEntity
  8
1
  6
CONTINUOUS
 62
     6
100
AcDbLine
 10
136.4
 20
231.666022
 30
0.0
 11
137.4
 21
231.851361
 31
0.0
  0
LINE
  5
38A
100
AcDbEntity
  8
1
  6
CONTINUOUS
 62
     6
100
AcDbLine
 10
136.4
 20
231.259209
 30
0.0
 11
137.4
 21
231.444548
 31
0.0
  0
LINE
  5
38B
100
AcDbEntity
  8
1
  6
CONTINUOUS
 62
     6
100
AcDbLine
 10
136.4
 20
230.852397
 30
0.0
 11
137.4
 21
231.037736
 31
0.0
  0
LINE
  5
38C
100
AcDbEntity
  8
1
  6
CONTINUOUS
 62
     6
100
AcDbLine
 10
136.4
 20
230.445585
 30
0.0
 11
137.4
 21
230.630924
 31
0.0
  0
LINE
  5
38D
100
AcDbEntity
  8
1
  6
CONTINUOUS
 62
     6
100
AcDbLine
 10
136.4
 20
230.038773
 30
0.0
 11
137.4
 21
230.224112
 31
0.0
  0
LINE
  5
38E
100
AcDbEntity
  8
1
  6
CONTINUOUS
 62
     6
100
AcDbLine
 10
136.4
 20
229.631961
 30
0.0
 11
137.4
 21
229.8173
 31
0.0
  0
LINE
  5
38F
100
AcDbEntity
  8
1
  6
CONTINUOUS
 62
     6
100
AcDbLine
 10
136.4
 20
229.225149
 30
0.0
 11
137.4
 21
229.410488
 31
0.0
  0
LINE
  5
390
100
AcDbEntity
  8
1
  6
CONTINUOUS
 62
     6
100
AcDbLine
 10
136.4
 20
228.818337
 30
0.0
 11
137.4
 21
229.003676
 31
0.0
  0
LINE
  5
391
100
AcDbEntity
  8
1
  6
CONTINUOUS
 62
     6
100
AcDbLine
 10
136.4
 20
228.411525
 30
0.0
 11
137.4
 21
228.596864
 31
0.0
  0
LINE
  5
392
100
AcDbEntity
  8
1
  6
CONTINUOUS
 62
     6
100
AcDbLine
 10
136.4
 20
228.004713
 30
0.0
 11
137.4
 21
228.190052
 31
0.0
  0
LINE
  5
393
100
AcDbEntity
  8
1
  6
CONTINUOUS
 62
     6
100
AcDbLine
 10
136.4
 20
227.5979
 30
0.0
 11
137.4
 21
227.78324
 31
0.0
  0
LINE
  5
394
100
AcDbEntity
  8
1
  6
CONTINUOUS
 62
     6
100
AcDbLine
 10
136.4
 20
227.191088
 30
0.0
 11
137.4
 21
227.376427
 31
0.0
  0
LINE
  5
395
100
AcDbEntity
  8
1
  6
CONTINUOUS
 62
     6
100
AcDbLine
 10
136.4
 20
226.784276
 30
0.0
 11
137.4
 21
226.969615
 31
0.0
  0
LINE
  5
396
100
AcDbEntity
  8
1
  6
CONTINUOUS
 62
     6
100
AcDbLine
 10
136.4
 20
226.377464
 30
0.0
 11
137.4
 21
226.562803
 31
0.0
  0
LINE
  5
397
100
AcDbEntity
  8
1
  6
CONTINUOUS
 62
     6
100
AcDbLine
 10
140.1
 20
235.7
 30
0.0
 11
139.7
 21
234.713333
 31
0.0
  0
LINE
  5
398
100
AcDbEntity
  8
1
  6
CONTINUOUS
 62
     6
100
AcDbLine
 10
140.1
 20
235.7
 30
0.0
 11
140.5
 21
234.713333
 31
0.0
  0
LINE
  5
399
100
AcDbEntity
  8
1
  6
CONTINUOUS
 62
     6
100
AcDbLine
 10
139.86914
 20
235.377213
 30
0.0
 11
140.298592
 21
235.456807
 31
0.0
  0
LINE
  5
39A
100
AcDbEntity
  8
1
  6
CONTINUOUS
 62
     6
100
AcDbLine
 10
139.7
 20
234.713333
 30
0.0
 11
139.7
 21
226.3
 31
0.0
  0
LINE
  5
39B
100
AcDbEntity
  8
1
  6
CONTINUOUS
 62
     6
100
AcDbLine
 10
140.5
 20
234.713333
 30
0.0
 11
140.5
 21
226.3
 31
0.0
  0
LINE
  5
39C
100
AcDbEntity
  8
1
  6
CONTINUOUS
 62
     6
100
AcDbLine
 10
139.68227
 20
234.935766
 30
0.0
 11
140.459342
 21
235.079788
 31
0.0
  0
LINE
  5
39D
100
AcDbEntity
  8
1
  6
CONTINUOUS
 62
     6
100
AcDbLine
 10
139.6
 20
234.513706
 30
0.0
 11
140.6
 21
234.699045
 31
0.0
  0
LINE
  5
39E
100
AcDbEntity
  8
1
  6
CONTINUOUS
 62
     6
100
AcDbLine
 10
139.6
 20
234.106894
 30
0.0
 11
140.6
 21
234.292233
 31
0.0
  0
LINE
  5
39F
100
AcDbEntity
  8
1
  6
CONTINUOUS
 62
     6
100
AcDbLine
 10
139.6
 20
233.700082
 30
0.0
 11
140.590169
 21
233.883599
 31
0.0
  0
LINE
  5
3A0
100
AcDbEntity
  8
1
  6
CONTINUOUS
 62
     6
100
AcDbLine
 10
139.6
 20
233.29327
 30
0.0
 11
140.6
 21
233.478609
 31
0.0
  0
LINE
  5
3A1
100
AcDbEntity
  8
1
  6
CONTINUOUS
 62
     6
100
AcDbLine
 10
139.6
 20
232.886458
 30
0.0
 11
140.6
 21
233.071797
 31
0.0
  0
LINE
  5
3A2
100
AcDbEntity
  8
1
  6
CONTINUOUS
 62
     6
100
AcDbLine
 10
139.6
 20
232.479646
 30
0.0
 11
140.6
 21
232.664985
 31
0.0
  0
LINE
  5
3A3
100
AcDbEntity
  8
1
  6
CONTINUOUS
 62
     6
100
AcDbLine
 10
139.6
 20
232.072834
 30
0.0
 11
140.6
 21
232.258173
 31
0.0
  0
LINE
  5
3A4
100
AcDbEntity
  8
1
  6
CONTINUOUS
 62
     6
100
AcDbLine
 10
139.6
 20
231.666022
 30
0.0
 11
140.6
 21
231.851361
 31
0.0
  0
LINE
  5
3A5
100
AcDbEntity
  8
1
  6
CONTINUOUS
 62
     6
100
AcDbLine
 10
139.6
 20
231.259209
 30
0.0
 11
140.6
 21
231.444548
 31
0.0
  0
LINE
  5
3A6
100
AcDbEntity
  8
1
  6
CONTINUOUS
 62
     6
100
AcDbLine
 10
139.6
 20
230.852397
 30
0.0
 11
140.6
 21
231.037736
 31
0.0
  0
LINE
  5
3A7
100
AcDbEntity
  8
1
  6
CONTINUOUS
 62
     6
100
AcDbLine
 10
139.6
 20
230.445585
 30
0.0
 11
140.6
 21
230.630924
 31
0.0
  0
LINE
  5
3A8
100
AcDbEntity
  8
1
  6
CONTINUOUS
 62
     6
100
AcDbLine
 10
139.6
 20
230.038773
 30
0.0
 11
140.6
 21
230.224112
 31
0.0
  0
LINE
  5
3A9
100
AcDbEntity
  8
1
  6
CONTINUOUS
 62
     6
100
AcDbLine
 10
139.6
 20
229.631961
 30
0.0
 11
140.6
 21
229.8173
 31
0.0
  0
LINE
  5
3AA
100
AcDbEntity
  8
1
  6
CONTINUOUS
 62
     6
100
AcDbLine
 10
139.6
 20
229.225149
 30
0.0
 11
140.6
 21
229.410488
 31
0.0
  0
LINE
  5
3AB
100
AcDbEntity
  8
1
  6
CONTINUOUS
 62
     6
100
AcDbLine
 10
139.6
 20
228.818337
 30
0.0
 11
140.6
 21
229.003676
 31
0.0
  0
LINE
  5
3AC
100
AcDbEntity
  8
1
  6
CONTINUOUS
 62
     6
100
AcDbLine
 10
139.6
 20
228.411525
 30
0.0
 11
140.6
 21
228.596864
 31
0.0
  0
LINE
  5
3AD
100
AcDbEntity
  8
1
  6
CONTINUOUS
 62
     6
100
AcDbLine
 10
139.6
 20
228.004713
 30
0.0
 11
140.6
 21
228.190052
 31
0.0
  0
LINE
  5
3AE
100
AcDbEntity
  8
1
  6
CONTINUOUS
 62
     6
100
AcDbLine
 10
139.6
 20
227.5979
 30
0.0
 11
140.6
 21
227.78324
 31
0.0
  0
LINE
  5
3AF
100
AcDbEntity
  8
1
  6
CONTINUOUS
 62
     6
100
AcDbLine
 10
139.6
 20
227.191088
 30
0.0
 11
140.6
 21
227.376427
 31
0.0
  0
LINE
  5
3B0
100
AcDbEntity
  8
1
  6
CONTINUOUS
 62
     6
100
AcDbLine
 10
139.6
 20
226.784276
 30
0.0
 11
140.6
 21
226.969615
 31
0.0
  0
LINE
  5
3B1
100
AcDbEntity
  8
1
  6
CONTINUOUS
 62
     6
100
AcDbLine
 10
139.6
 20
226.377464
 30
0.0
 11
140.6
 21
226.562803
 31
0.0
  0
ARC
  5
3B2
100
AcDbEntity
  8
1
  6
CONTINUOUS
 62
     4
100
AcDbCircle
 10
82.891901
 20
80.9
 30
0.0
 40
4.0
100
AcDbArc
 50
337.975687
 51
22.024313
  0
ARC
  5
3B3
100
AcDbEntity
  8
1
  6
CONTINUOUS
 62
     4
100
AcDbCircle
 10
90.308099
 20
77.9
 30
0.0
 40
4.0
100
AcDbArc
 50
157.975687
 51
202.024313
  0
ARC
  5
3B4
100
AcDbEntity
  8
1
  6
CONTINUOUS
 62
     4
100
AcDbCircle
 10
83.491901
 20
80.9
 30
0.0
 40
4.0
100
AcDbArc
 50
337.975687
 51
22.024313
  0
ARC
  5
3B5
100
AcDbEntity
  8
1
  6
CONTINUOUS
 62
     4
100
AcDbCircle
 10
90.908099
 20
77.9
 30
0.0
 40
4.0
100
AcDbArc
 50
157.975687
 51
202.024313
  0
ARC
  5
3B6
100
AcDbEntity
  8
1
  6
CONTINUOUS
 62
     4
100
AcDbCircle
 10
138.4
 20
133.408099
 30
0.0
 40
4.0
100
AcDbArc
 50
247.975687
 51
292.024313
  0
ARC
  5
3B7
100
AcDbEntity
  8
1
  6
CONTINUOUS
 62
     4
100
AcDbCircle
 10
135.4
 20
125.991901
 30
0.0
 40
4.0
100
AcDbArc
 50
67.975687
 51
112.024313
  0
ARC
  5
3B8
100
AcDbEntity
  8
1
  6
CONTINUOUS
 62
     4
100
AcDbCircle
 10
138.4
 20
132.808099
 30
0.0
 40
4.0
100
AcDbArc
 50
247.975687
 51
292.024313
  0
ARC
  5
3B9
100
AcDbEntity
  8
1
  6
CONTINUOUS
 62
     4
100
AcDbCircle
 10
135.4
 20
125.391901
 30
0.0
 40
4.0
100
AcDbArc
 50
67.975687
 51
112.024313
  0
LINE
  5
3BA
100
AcDbEntity
  8
1
  6
CONTINUOUS
 62
     6
100
AcDbLine
 10
192.3
 20
182.4
 30
0.0
 11
191.313333
 21
182.8
 31
0.0
  0
LINE
  5
3BB
100
AcDbEntity
  8
1
  6
CONTINUOUS
 62
     6
100
AcDbLine
 10
192.3
 20
182.4
 30
0.0
 11
191.313333
 21
182.0
 31
0.0
  0
LINE
  5
3BC
100
AcDbEntity
  8
1
  6
CONTINUOUS
 62
     6
100
AcDbLine
 10
191.977213
 20
182.63086
 30
0.0
 11
192.056807
 21
182.201408
 31
0.0
  0
LINE
  5
3BD
100
AcDbEntity
  8
1
  6
CONTINUOUS
 62
     2
100
AcDbLine
 10
168.24
 20
174.4
 30
0.0
 11
182.9
 21
174.4
 31
0.0
  0
LINE
  5
3BE
100
AcDbEntity
  8
1
  6
CONTINUOUS
 62
     2
100
AcDbLine
 10
169.84
 20
184.4
 30
0.0
 11
182.9
 21
184.4
 31
0.0
  0
LINE
  5
3BF
100
AcDbEntity
  8
1
  6
CONTINUOUS
 62
     2
100
AcDbLine
 10
182.9
 20
184.4
 30
0.0
 11
182.9
 21
174.4
 31
0.0
  0
LINE
  5
3C0
100
AcDbEntity
  8
1
  6
CONTINUOUS
 62
     2
100
AcDbLine
 10
167.84
 20
182.4
 30
0.0
 11
167.84
 21
174.8
 31
0.0
  0
ARC
  5
3C1
100
AcDbEntity
  8
1
  6
CONTINUOUS
 62
     2
100
AcDbCircle
 10
169.84
 20
182.4
 30
0.0
 40
2.0
100
AcDbArc
 50
90.0
 51
180.0
  0
ARC
  5
3C2
100
AcDbEntity
  8
1
  6
CONTINUOUS
 62
     2
100
AcDbCircle
 10
168.24
 20
174.8
 30
0.0
 40
0.4
100
AcDbArc
 50
180.0
 51
270.0
  0
LINE
  5
3C3
100
AcDbEntity
  8
1
  6
CONTINUOUS
 62
     6
100
AcDbLine
 10
191.313333
 20
182.8
 30
0.0
 11
182.9
 21
182.8
 31
0.0
  0
LINE
  5
3C4
100
AcDbEntity
  8
1
  6
CONTINUOUS
 62
     6
100
AcDbLine
 10
191.313333
 20
182.0
 30
0.0
 11
182.9
 21
182.0
 31
0.0
  0
LINE
  5
3C5
100
AcDbEntity
  8
1
  6
CONTINUOUS
 62
     6
100
AcDbLine
 10
191.535766
 20
182.81773
 30
0.0
 11
191.679788
 21
182.040658
 31
0.0
  0
LINE
  5
3C6
100
AcDbEntity
  8
1
  6
CONTINUOUS
 62
     6
100
AcDbLine
 10
191.113706
 20
182.9
 30
0.0
 11
191.299045
 21
181.9
 31
0.0
  0
LINE
  5
3C7
100
AcDbEntity
  8
1
  6
CONTINUOUS
 62
     6
100
AcDbLine
 10
190.706894
 20
182.9
 30
0.0
 11
190.892233
 21
181.9
 31
0.0
  0
LINE
  5
3C8
100
AcDbEntity
  8
1
  6
CONTINUOUS
 62
     6
100
AcDbLine
 10
190.300082
 20
182.9
 30
0.0
 11
190.483599
 21
181.909831
 31
0.0
  0
LINE
  5
3C9
100
AcDbEntity
  8
1
  6
CONTINUOUS
 62
     6
100
AcDbLine
 10
189.89327
 20
182.9
 30
0.0
 11
190.078609
 21
181.9
 31
0.0
  0
LINE
  5
3CA
100
AcDbEntity
  8
1
  6
CONTINUOUS
 62
     6
100
AcDbLine
 10
189.486458
 20
182.9
 30
0.0
 11
189.671797
 21
181.9
 31
0.0
  0
LINE
  5
3CB
100
AcDbEntity
  8
1
  6
CONTINUOUS
 62
     6
100
AcDbLine
 10
189.079646
 20
182.9
 30
0.0
 11
189.264985
 21
181.9
 31
0.0
  0
LINE
  5
3CC
100
AcDbEntity
  8
1
  6
CONTINUOUS
 62
     6
100
AcDbLine
 10
188.672834
 20
182.9
 30
0.0
 11
188.858173
 21
181.9
 31
0.0
  0
LINE
  5
3CD
100
AcDbEntity
  8
1
  6
CONTINUOUS
 62
     6
100
AcDbLine
 10
188.266022
 20
182.9
 30
0.0
 11
188.451361
 21
181.9
 31
0.0
  0
LINE
  5
3CE
100
AcDbEntity
  8
1
  6
CONTINUOUS
 62
     6
100
AcDbLine
 10
187.859209
 20
182.9
 30
0.0
 11
188.044548
 21
181.9
 31
0.0
  0
LINE
  5
3CF
100
AcDbEntity
  8
1
  6
CONTINUOUS
 62
     6
100
AcDbLine
 10
187.452397
 20
182.9
 30
0.0
 11
187.637736
 21
181.9
 31
0.0
  0
LINE
  5
3D0
100
AcDbEntity
  8
1
  6
CONTINUOUS
 62
     6
100
AcDbLine
 10
187.045585
 20
182.9
 30
0.0
 11
187.230924
 21
181.9
 31
0.0
  0
LINE
  5
3D1
100
AcDbEntity
  8
1
  6
CONTINUOUS
 62
     6
100
AcDbLine
 10
186.638773
 20
182.9
 30
0.0
 11
186.824112
 21
181.9
 31
0.0
  0
LINE
  5
3D2
100
AcDbEntity
  8
1
  6
CONTINUOUS
 62
     6
100
AcDbLine
 10
186.231961
 20
182.9
 30
0.0
 11
186.4173
 21
181.9
 31
0.0
  0
LINE
  5
3D3
100
AcDbEntity
  8
1
  6
CONTINUOUS
 62
     6
100
AcDbLine
 10
185.825149
 20
182.9
 30
0.0
 11
186.010488
 21
181.9
 31
0.0
  0
LINE
  5
3D4
100
AcDbEntity
  8
1
  6
CONTINUOUS
 62
     6
100
AcDbLine
 10
185.418337
 20
182.9
 30
0.0
 11
185.603676
 21
181.9
 31
0.0
  0
LINE
  5
3D5
100
AcDbEntity
  8
1
  6
CONTINUOUS
 62
     6
100
AcDbLine
 10
185.011525
 20
182.9
 30
0.0
 11
185.196864
 21
181.9
 31
0.0
  0
LINE
  5
3D6
100
AcDbEntity
  8
1
  6
CONTINUOUS
 62
     6
100
AcDbLine
 10
184.604713
 20
182.9
 30
0.0
 11
184.790052
 21
181.9
 31
0.0
  0
LINE
  5
3D7
100
AcDbEntity
  8
1
  6
CONTINUOUS
 62
     6
100
AcDbLine
 10
184.1979
 20
182.9
 30
0.0
 11
184.38324
 21
181.9
 31
0.0
  0
LINE
  5
3D8
100
AcDbEntity
  8
1
  6
CONTINUOUS
 62
     6
100
AcDbLine
 10
183.791088
 20
182.9
 30
0.0
 11
183.976427
 21
181.9
 31
0.0
  0
LINE
  5
3D9
100
AcDbEntity
  8
1
  6
CONTINUOUS
 62
     6
100
AcDbLine
 10
183.384276
 20
182.9
 30
0.0
 11
183.569615
 21
181.9
 31
0.0
  0
LINE
  5
3DA
100
AcDbEntity
  8
1
  6
CONTINUOUS
 62
     6
100
AcDbLine
 10
182.977464
 20
182.9
 30
0.0
 11
183.162803
 21
181.9
 31
0.0
  0
LINE
  5
3DB
100
AcDbEntity
  8
1
  6
CONTINUOUS
 62
     6
100
AcDbLine
 10
192.3
 20
179.4
 30
0.0
 11
191.313333
 21
179.8
 31
0.0
  0
LINE
  5
3DC
100
AcDbEntity
  8
1
  6
CONTINUOUS
 62
     6
100
AcDbLine
 10
192.3
 20
179.4
 30
0.0
 11
191.313333
 21
179.0
 31
0.0
  0
LINE
  5
3DD
100
AcDbEntity
  8
1
  6
CONTINUOUS
 62
     6
100
AcDbLine
 10
191.977213
 20
179.63086
 30
0.0
 11
192.056807
 21
179.201408
 31
0.0
  0
LINE
  5
3DE
100
AcDbEntity
  8
1
  6
CONTINUOUS
 62
     6
100
AcDbLine
 10
191.313333
 20
179.8
 30
0.0
 11
182.9
 21
179.8
 31
0.0
  0
LINE
  5
3DF
100
AcDbEntity
  8
1
  6
CONTINUOUS
 62
     6
100
AcDbLine
 10
191.313333
 20
179.0
 30
0.0
 11
182.9
 21
179.0
 31
0.0
  0
LINE
  5
3E0
100
AcDbEntity
  8
1
  6
CONTINUOUS
 62
     6
100
AcDbLine
 10
191.535766
 20
179.81773
 30
0.0
 11
191.679788
 21
179.040658
 31
0.0
  0
LINE
  5
3E1
100
AcDbEntity
  8
1
  6
CONTINUOUS
 62
     6
100
AcDbLine
 10
191.113706
 20
179.9
 30
0.0
 11
191.299045
 21
178.9
 31
0.0
  0
LINE
  5
3E2
100
AcDbEntity
  8
1
  6
CONTINUOUS
 62
     6
100
AcDbLine
 10
190.706894
 20
179.9
 30
0.0
 11
190.892233
 21
178.9
 31
0.0
  0
LINE
  5
3E3
100
AcDbEntity
  8
1
  6
CONTINUOUS
 62
     6
100
AcDbLine
 10
190.300082
 20
179.9
 30
0.0
 11
190.483599
 21
178.909831
 31
0.0
  0
LINE
  5
3E4
100
AcDbEntity
  8
1
  6
CONTINUOUS
 62
     6
100
AcDbLine
 10
189.89327
 20
179.9
 30
0.0
 11
190.078609
 21
178.9
 31
0.0
  0
LINE
  5
3E5
100
AcDbEntity
  8
1
  6
CONTINUOUS
 62
     6
100
AcDbLine
 10
189.486458
 20
179.9
 30
0.0
 11
189.671797
 21
178.9
 31
0.0
  0
LINE
  5
3E6
100
AcDbEntity
  8
1
  6
CONTINUOUS
 62
     6
100
AcDbLine
 10
189.079646
 20
179.9
 30
0.0
 11
189.264985
 21
178.9
 31
0.0
  0
LINE
  5
3E7
100
AcDbEntity
  8
1
  6
CONTINUOUS
 62
     6
100
AcDbLine
 10
188.672834
 20
179.9
 30
0.0
 11
188.858173
 21
178.9
 31
0.0
  0
LINE
  5
3E8
100
AcDbEntity
  8
1
  6
CONTINUOUS
 62
     6
100
AcDbLine
 10
188.266022
 20
179.9
 30
0.0
 11
188.451361
 21
178.9
 31
0.0
  0
LINE
  5
3E9
100
AcDbEntity
  8
1
  6
CONTINUOUS
 62
     6
100
AcDbLine
 10
187.859209
 20
179.9
 30
0.0
 11
188.044548
 21
178.9
 31
0.0
  0
LINE
  5
3EA
100
AcDbEntity
  8
1
  6
CONTINUOUS
 62
     6
100
AcDbLine
 10
187.452397
 20
179.9
 30
0.0
 11
187.637736
 21
178.9
 31
0.0
  0
LINE
  5
3EB
100
AcDbEntity
  8
1
  6
CONTINUOUS
 62
     6
100
AcDbLine
 10
187.045585
 20
179.9
 30
0.0
 11
187.230924
 21
178.9
 31
0.0
  0
LINE
  5
3EC
100
AcDbEntity
  8
1
  6
CONTINUOUS
 62
     6
100
AcDbLine
 10
186.638773
 20
179.9
 30
0.0
 11
186.824112
 21
178.9
 31
0.0
  0
LINE
  5
3ED
100
AcDbEntity
  8
1
  6
CONTINUOUS
 62
     6
100
AcDbLine
 10
186.231961
 20
179.9
 30
0.0
 11
186.4173
 21
178.9
 31
0.0
  0
LINE
  5
3EE
100
AcDbEntity
  8
1
  6
CONTINUOUS
 62
     6
100
AcDbLine
 10
185.825149
 20
179.9
 30
0.0
 11
186.010488
 21
178.9
 31
0.0
  0
LINE
  5
3EF
100
AcDbEntity
  8
1
  6
CONTINUOUS
 62
     6
100
AcDbLine
 10
185.418337
 20
179.9
 30
0.0
 11
185.603676
 21
178.9
 31
0.0
  0
LINE
  5
3F0
100
AcDbEntity
  8
1
  6
CONTINUOUS
 62
     6
100
AcDbLine
 10
185.011525
 20
179.9
 30
0.0
 11
185.196864
 21
178.9
 31
0.0
  0
LINE
  5
3F1
100
AcDbEntity
  8
1
  6
CONTINUOUS
 62
     6
100
AcDbLine
 10
184.604713
 20
179.9
 30
0.0
 11
184.790052
 21
178.9
 31
0.0
  0
LINE
  5
3F2
100
AcDbEntity
  8
1
  6
CONTINUOUS
 62
     6
100
AcDbLine
 10
184.1979
 20
179.9
 30
0.0
 11
184.38324
 21
178.9
 31
0.0
  0
LINE
  5
3F3
100
AcDbEntity
  8
1
  6
CONTINUOUS
 62
     6
100
AcDbLine
 10
183.791088
 20
179.9
 30
0.0
 11
183.976427
 21
178.9
 31
0.0
  0
LINE
  5
3F4
100
AcDbEntity
  8
1
  6
CONTINUOUS
 62
     6
100
AcDbLine
 10
183.384276
 20
179.9
 30
0.0
 11
183.569615
 21
178.9
 31
0.0
  0
LINE
  5
3F5
100
AcDbEntity
  8
1
  6
CONTINUOUS
 62
     6
100
AcDbLine
 10
182.977464
 20
179.9
 30
0.0
 11
183.162803
 21
178.9
 31
0.0
  0
LINE
  5
3F6
100
AcDbEntity
  8
1
  6
CONTINUOUS
 62
     4
100
AcDbLine
 10
127.7
 20
218.0
 30
0.0
 11
127.7
 21
217.84
 31
0.0
  0
LINE
  5
3F7
100
AcDbEntity
  8
1
  6
CONTINUOUS
 62
     4
100
AcDbLine
 10
126.1
 20
218.0
 30
0.0
 11
126.1
 21
217.84
 31
0.0
  0
LINE
  5
3F8
100
AcDbEntity
  8
1
  6
CONTINUOUS
 62
     4
100
AcDbLine
 10
127.7
 20
217.94
 30
0.0
 11
126.1
 21
217.94
 31
0.0
  0
LINE
  5
3F9
100
AcDbEntity
  8
1
  6
CONTINUOUS
 62
     4
100
AcDbLine
 10
127.7
 20
217.84
 30
0.0
 11
126.991062
 21
217.614154
 31
0.0
  0
LINE
  5
3FA
100
AcDbEntity
  8
1
  6
CONTINUOUS
 62
     4
100
AcDbLine
 10
126.1
 20
217.84
 30
0.0
 11
126.808938
 21
217.614154
 31
0.0
  0
ARC
  5
3FB
100
AcDbEntity
  8
1
  6
CONTINUOUS
 62
     4
100
AcDbCircle
 10
126.9
 20
217.9
 30
0.0
 40
0.3
100
AcDbArc
 50
252.329738
 51
287.670262
  0
LINE
  5
3FC
100
AcDbEntity
  8
1
  6
CONTINUOUS
 62
     4
100
AcDbLine
 10
123.7
 20
218.0
 30
0.0
 11
123.7
 21
217.84
 31
0.0
  0
LINE
  5
3FD
100
AcDbEntity
  8
1
  6
CONTINUOUS
 62
     4
100
AcDbLine
 10
122.1
 20
218.0
 30
0.0
 11
122.1
 21
217.84
 31
0.0
  0
LINE
  5
3FE
100
AcDbEntity
  8
1
  6
CONTINUOUS
 62
     4
100
AcDbLine
 10
123.7
 20
217.94
 30
0.0
 11
122.1
 21
217.94
 31
0.0
  0
LINE
  5
3FF
100
AcDbEntity
  8
1
  6
CONTINUOUS
 62
     4
100
AcDbLine
 10
123.7
 20
217.84
 30
0.0
 11
122.991062
 21
217.614154
 31
0.0
  0
LINE
  5
400
100
AcDbEntity
  8
1
  6
CONTINUOUS
 62
     4
100
AcDbLine
 10
122.1
 20
217.84
 30
0.0
 11
122.808938
 21
217.614154
 31
0.0
  0
ARC
  5
401
100
AcDbEntity
  8
1
  6
CONTINUOUS
 62
     4
100
AcDbCircle
 10
122.9
 20
217.9
 30
0.0
 40
0.3
100
AcDbArc
 50
252.329738
 51
287.670262
  0
LINE
  5
402
100
AcDbEntity
  8
1
  6
CONTINUOUS
 62
     4
100
AcDbLine
 10
119.7
 20
218.0
 30
0.0
 11
119.7
 21
217.84
 31
0.0
  0
LINE
  5
403
100
AcDbEntity
  8
1
  6
CONTINUOUS
 62
     4
100
AcDbLine
 10
118.1
 20
218.0
 30
0.0
 11
118.1
 21
217.84
 31
0.0
  0
LINE
  5
404
100
AcDbEntity
  8
1
  6
CONTINUOUS
 62
     4
100
AcDbLine
 10
119.7
 20
217.94
 30
0.0
 11
118.1
 21
217.94
 31
0.0
  0
LINE
  5
405
100
AcDbEntity
  8
1
  6
CONTINUOUS
 62
     4
100
AcDbLine
 10
119.7
 20
217.84
 30
0.0
 11
118.991062
 21
217.614154
 31
0.0
  0
LINE
  5
406
100
AcDbEntity
  8
1
  6
CONTINUOUS
 62
     4
100
AcDbLine
 10
118.1
 20
217.84
 30
0.0
 11
118.808938
 21
217.614154
 31
0.0
  0
ARC
  5
407
100
AcDbEntity
  8
1
  6
CONTINUOUS
 62
     4
100
AcDbCircle
 10
118.9
 20
217.9
 30
0.0
 40
0.3
100
AcDbArc
 50
252.329738
 51
287.670262
  0
LINE
  5
408
100
AcDbEntity
  8
1
  6
CONTINUOUS
 62
     4
100
AcDbLine
 10
115.7
 20
218.0
 30
0.0
 11
115.7
 21
217.84
 31
0.0
  0
LINE
  5
409
100
AcDbEntity
  8
1
  6
CONTINUOUS
 62
     4
100
AcDbLine
 10
114.1
 20
218.0
 30
0.0
 11
114.1
 21
217.84
 31
0.0
  0
LINE
  5
40A
100
AcDbEntity
  8
1
  6
CONTINUOUS
 62
     4
100
AcDbLine
 10
115.7
 20
217.94
 30
0.0
 11
114.1
 21
217.94
 31
0.0
  0
LINE
  5
40B
100
AcDbEntity
  8
1
  6
CONTINUOUS
 62
     4
100
AcDbLine
 10
115.7
 20
217.84
 30
0.0
 11
114.991062
 21
217.614154
 31
0.0
  0
LINE
  5
40C
100
AcDbEntity
  8
1
  6
CONTINUOUS
 62
     4
100
AcDbLine
 10
114.1
 20
217.84
 30
0.0
 11
114.808938
 21
217.614154
 31
0.0
  0
ARC
  5
40D
100
AcDbEntity
  8
1
  6
CONTINUOUS
 62
     4
100
AcDbCircle
 10
114.9
 20
217.9
 30
0.0
 40
0.3
100
AcDbArc
 50
252.329738
 51
287.670262
  0
LINE
  5
40E
100
AcDbEntity
  8
1
  6
CONTINUOUS
 62
     2
100
AcDbLine
 10
126.1
 20
218.0
 30
0.0
 11
123.7
 21
218.0
 31
0.0
  0
LINE
  5
40F
100
AcDbEntity
  8
1
  6
CONTINUOUS
 62
     2
100
AcDbLine
 10
122.1
 20
218.0
 30
0.0
 11
119.7
 21
218.0
 31
0.0
  0
LINE
  5
410
100
AcDbEntity
  8
1
  6
CONTINUOUS
 62
     2
100
AcDbLine
 10
118.1
 20
218.0
 30
0.0
 11
115.7
 21
218.0
 31
0.0
  0
LINE
  5
411
100
AcDbEntity
  8
1
  6
CONTINUOUS
 62
     4
100
AcDbLine
 10
46.1
 20
218.0
 30
0.0
 11
46.1
 21
217.84
 31
0.0
  0
LINE
  5
412
100
AcDbEntity
  8
1
  6
CONTINUOUS
 62
     4
100
AcDbLine
 10
47.7
 20
218.0
 30
0.0
 11
47.7
 21
217.84
 31
0.0
  0
LINE
  5
413
100
AcDbEntity
  8
1
  6
CONTINUOUS
 62
     4
100
AcDbLine
 10
46.1
 20
217.94
 30
0.0
 11
47.7
 21
217.94
 31
0.0
  0
LINE
  5
414
100
AcDbEntity
  8
1
  6
CONTINUOUS
 62
     4
100
AcDbLine
 10
46.1
 20
217.84
 30
0.0
 11
46.808938
 21
217.614154
 31
0.0
  0
LINE
  5
415
100
AcDbEntity
  8
1
  6
CONTINUOUS
 62
     4
100
AcDbLine
 10
47.7
 20
217.84
 30
0.0
 11
46.991062
 21
217.614154
 31
0.0
  0
ARC
  5
416
100
AcDbEntity
  8
1
  6
CONTINUOUS
 62
     4
100
AcDbCircle
 10
46.9
 20
217.9
 30
0.0
 40
0.3
100
AcDbArc
 50
252.329738
 51
287.670262
  0
LINE
  5
417
100
AcDbEntity
  8
1
  6
CONTINUOUS
 62
     4
100
AcDbLine
 10
50.1
 20
218.0
 30
0.0
 11
50.1
 21
217.84
 31
0.0
  0
LINE
  5
418
100
AcDbEntity
  8
1
  6
CONTINUOUS
 62
     4
100
AcDbLine
 10
51.7
 20
218.0
 30
0.0
 11
51.7
 21
217.84
 31
0.0
  0
LINE
  5
419
100
AcDbEntity
  8
1
  6
CONTINUOUS
 62
     4
100
AcDbLine
 10
50.1
 20
217.94
 30
0.0
 11
51.7
 21
217.94
 31
0.0
  0
LINE
  5
41A
100
AcDbEntity
  8
1
  6
CONTINUOUS
 62
     4
100
AcDbLine
 10
50.1
 20
217.84
 30
0.0
 11
50.808938
 21
217.614154
 31
0.0
  0
LINE
  5
41B
100
AcDbEntity
  8
1
  6
CONTINUOUS
 62
     4
100
AcDbLine
 10
51.7
 20
217.84
 30
0.0
 11
50.991062
 21
217.614154
 31
0.0
  0
ARC
  5
41C
100
AcDbEntity
  8
1
  6
CONTINUOUS
 62
     4
100
AcDbCircle
 10
50.9
 20
217.9
 30
0.0
 40
0.3
100
AcDbArc
 50
252.329738
 51
287.670262
  0
LINE
  5
41D
100
AcDbEntity
  8
1
  6
CONTINUOUS
 62
     4
100
AcDbLine
 10
54.1
 20
218.0
 30
0.0
 11
54.1
 21
217.84
 31
0.0
  0
LINE
  5
41E
100
AcDbEntity
  8
1
  6
CONTINUOUS
 62
     4
100
AcDbLine
 10
55.7
 20
218.0
 30
0.0
 11
55.7
 21
217.84
 31
0.0
  0
LINE
  5
41F
100
AcDbEntity
  8
1
  6
CONTINUOUS
 62
     4
100
AcDbLine
 10
54.1
 20
217.94
 30
0.0
 11
55.7
 21
217.94
 31
0.0
  0
LINE
  5
420
100
AcDbEntity
  8
1
  6
CONTINUOUS
 62
     4
100
AcDbLine
 10
54.1
 20
217.84
 30
0.0
 11
54.808938
 21
217.614154
 31
0.0
  0
LINE
  5
421
100
AcDbEntity
  8
1
  6
CONTINUOUS
 62
     4
100
AcDbLine
 10
55.7
 20
217.84
 30
0.0
 11
54.991062
 21
217.614154
 31
0.0
  0
ARC
  5
422
100
AcDbEntity
  8
1
  6
CONTINUOUS
 62
     4
100
AcDbCircle
 10
54.9
 20
217.9
 30
0.0
 40
0.3
100
AcDbArc
 50
252.329738
 51
287.670262
  0
LINE
  5
423
100
AcDbEntity
  8
1
  6
CONTINUOUS
 62
     4
100
AcDbLine
 10
58.1
 20
218.0
 30
0.0
 11
58.1
 21
217.84
 31
0.0
  0
LINE
  5
424
100
AcDbEntity
  8
1
  6
CONTINUOUS
 62
     4
100
AcDbLine
 10
59.7
 20
218.0
 30
0.0
 11
59.7
 21
217.84
 31
0.0
  0
LINE
  5
425
100
AcDbEntity
  8
1
  6
CONTINUOUS
 62
     4
100
AcDbLine
 10
58.1
 20
217.94
 30
0.0
 11
59.7
 21
217.94
 31
0.0
  0
LINE
  5
426
100
AcDbEntity
  8
1
  6
CONTINUOUS
 62
     4
100
AcDbLine
 10
58.1
 20
217.84
 30
0.0
 11
58.808938
 21
217.614154
 31
0.0
  0
LINE
  5
427
100
AcDbEntity
  8
1
  6
CONTINUOUS
 62
     4
100
AcDbLine
 10
59.7
 20
217.84
 30
0.0
 11
58.991062
 21
217.614154
 31
0.0
  0
ARC
  5
428
100
AcDbEntity
  8
1
  6
CONTINUOUS
 62
     4
100
AcDbCircle
 10
58.9
 20
217.9
 30
0.0
 40
0.3
100
AcDbArc
 50
252.329738
 51
287.670262
  0
LINE
  5
429
100
AcDbEntity
  8
1
  6
CONTINUOUS
 62
     2
100
AcDbLine
 10
51.7
 20
218.0
 30
0.0
 11
54.1
 21
218.0
 31
0.0
  0
LINE
  5
42A
100
AcDbEntity
  8
1
  6
CONTINUOUS
 62
     2
100
AcDbLine
 10
55.7
 20
218.0
 30
0.0
 11
58.1
 21
218.0
 31
0.0
  0
LINE
  5
42B
100
AcDbEntity
  8
1
  6
CONTINUOUS
 62
     2
100
AcDbLine
 10
47.7
 20
218.0
 30
0.0
 11
50.1
 21
218.0
 31
0.0
  0
LINE
  5
42C
100
AcDbEntity
  8
1
  6
CONTINUOUS
 62
     4
100
AcDbLine
 10
43.7
 20
218.0
 30
0.0
 11
43.7
 21
217.84
 31
0.0
  0
LINE
  5
42D
100
AcDbEntity
  8
1
  6
CONTINUOUS
 62
     4
100
AcDbLine
 10
42.1
 20
218.0
 30
0.0
 11
42.1
 21
217.84
 31
0.0
  0
LINE
  5
42E
100
AcDbEntity
  8
1
  6
CONTINUOUS
 62
     4
100
AcDbLine
 10
43.7
 20
217.94
 30
0.0
 11
42.1
 21
217.94
 31
0.0
  0
LINE
  5
42F
100
AcDbEntity
  8
1
  6
CONTINUOUS
 62
     4
100
AcDbLine
 10
43.7
 20
217.84
 30
0.0
 11
42.991062
 21
217.614154
 31
0.0
  0
LINE
  5
430
100
AcDbEntity
  8
1
  6
CONTINUOUS
 62
     4
100
AcDbLine
 10
42.1
 20
217.84
 30
0.0
 11
42.808938
 21
217.614154
 31
0.0
  0
ARC
  5
431
100
AcDbEntity
  8
1
  6
CONTINUOUS
 62
     4
100
AcDbCircle
 10
42.9
 20
217.9
 30
0.0
 40
0.3
100
AcDbArc
 50
252.329738
 51
287.670262
  0
ARC
  5
432
100
AcDbEntity
  8
1
  6
CONTINUOUS
 62
     4
100
AcDbCircle
 10
173.1
 20
133.408099
 30
0.0
 40
4.0
100
AcDbArc
 50
247.975687
 51
291.100196
  0
ARC
  5
433
100
AcDbEntity
  8
1
  6
CONTINUOUS
 62
     4
100
AcDbCircle
 10
170.1
 20
125.991901
 30
0.0
 40
4.0
100
AcDbArc
 50
67.975687
 51
112.024313
  0
ARC
  5
434
100
AcDbEntity
  8
1
  6
CONTINUOUS
 62
     4
100
AcDbCircle
 10
173.1
 20
132.808099
 30
0.0
 40
4.0
100
AcDbArc
 50
247.975687
 51
291.100196
  0
ARC
  5
435
100
AcDbEntity
  8
1
  6
CONTINUOUS
 62
     4
100
AcDbCircle
 10
170.1
 20
125.391901
 30
0.0
 40
4.0
100
AcDbArc
 50
67.975687
 51
112.024313
  0
LINE
  5
436
100
AcDbEntity
  8
1
  6
CONTINUOUS
 62
     2
100
AcDbLine
 10
168.6
 20
174.4
 30
0.0
 11
168.6
 21
129.7
 31
0.0
  0
LINE
  5
437
100
AcDbEntity
  8
1
  6
CONTINUOUS
 62
     2
100
AcDbLine
 10
168.6
 20
129.1
 30
0.0
 11
168.6
 21
87.1
 31
0.0
  0
LINE
  5
438
100
AcDbEntity
  8
1
  6
CONTINUOUS
 62
     4
100
AcDbLine
 10
174.6
 20
142.2
 30
0.0
 11
174.44
 21
142.2
 31
0.0
  0
LINE
  5
439
100
AcDbEntity
  8
1
  6
CONTINUOUS
 62
     4
100
AcDbLine
 10
174.6
 20
140.6
 30
0.0
 11
174.44
 21
140.6
 31
0.0
  0
LINE
  5
43A
100
AcDbEntity
  8
1
  6
CONTINUOUS
 62
     4
100
AcDbLine
 10
174.54
 20
142.2
 30
0.0
 11
174.54
 21
140.6
 31
0.0
  0
LINE
  5
43B
100
AcDbEntity
  8
1
  6
CONTINUOUS
 62
     4
100
AcDbLine
 10
174.44
 20
142.2
 30
0.0
 11
174.214154
 21
141.491062
 31
0.0
  0
LINE
  5
43C
100
AcDbEntity
  8
1
  6
CONTINUOUS
 62
     4
100
AcDbLine
 10
174.44
 20
140.6
 30
0.0
 11
174.214154
 21
141.308938
 31
0.0
  0
ARC
  5
43D
100
AcDbEntity
  8
1
  6
CONTINUOUS
 62
     4
100
AcDbCircle
 10
174.5
 20
141.4
 30
0.0
 40
0.3
100
AcDbArc
 50
162.329738
 51
197.670262
  0
LINE
  5
43E
100
AcDbEntity
  8
1
  6
CONTINUOUS
 62
     4
100
AcDbLine
 10
174.6
 20
146.2
 30
0.0
 11
174.44
 21
146.2
 31
0.0
  0
LINE
  5
43F
100
AcDbEntity
  8
1
  6
CONTINUOUS
 62
     4
100
AcDbLine
 10
174.6
 20
144.6
 30
0.0
 11
174.44
 21
144.6
 31
0.0
  0
LINE
  5
440
100
AcDbEntity
  8
1
  6
CONTINUOUS
 62
     4
100
AcDbLine
 10
174.54
 20
146.2
 30
0.0
 11
174.54
 21
144.6
 31
0.0
  0
LINE
  5
441
100
AcDbEntity
  8
1
  6
CONTINUOUS
 62
     4
100
AcDbLine
 10
174.44
 20
146.2
 30
0.0
 11
174.214154
 21
145.491062
 31
0.0
  0
LINE
  5
442
100
AcDbEntity
  8
1
  6
CONTINUOUS
 62
     4
100
AcDbLine
 10
174.44
 20
144.6
 30
0.0
 11
174.214154
 21
145.308938
 31
0.0
  0
ARC
  5
443
100
AcDbEntity
  8
1
  6
CONTINUOUS
 62
     4
100
AcDbCircle
 10
174.5
 20
145.4
 30
0.0
 40
0.3
100
AcDbArc
 50
162.329738
 51
197.670262
  0
LINE
  5
444
100
AcDbEntity
  8
1
  6
CONTINUOUS
 62
     4
100
AcDbLine
 10
174.6
 20
150.2
 30
0.0
 11
174.44
 21
150.2
 31
0.0
  0
LINE
  5
445
100
AcDbEntity
  8
1
  6
CONTINUOUS
 62
     4
100
AcDbLine
 10
174.6
 20
148.6
 30
0.0
 11
174.44
 21
148.6
 31
0.0
  0
LINE
  5
446
100
AcDbEntity
  8
1
  6
CONTINUOUS
 62
     4
100
AcDbLine
 10
174.54
 20
150.2
 30
0.0
 11
174.54
 21
148.6
 31
0.0
  0
LINE
  5
447
100
AcDbEntity
  8
1
  6
CONTINUOUS
 62
     4
100
AcDbLine
 10
174.44
 20
150.2
 30
0.0
 11
174.214154
 21
149.491062
 31
0.0
  0
LINE
  5
448
100
AcDbEntity
  8
1
  6
CONTINUOUS
 62
     4
100
AcDbLine
 10
174.44
 20
148.6
 30
0.0
 11
174.214154
 21
149.308938
 31
0.0
  0
ARC
  5
449
100
AcDbEntity
  8
1
  6
CONTINUOUS
 62
     4
100
AcDbCircle
 10
174.5
 20
149.4
 30
0.0
 40
0.3
100
AcDbArc
 50
162.329738
 51
197.670262
  0
LINE
  5
44A
100
AcDbEntity
  8
1
  6
CONTINUOUS
 62
     4
100
AcDbLine
 10
174.6
 20
154.2
 30
0.0
 11
174.44
 21
154.2
 31
0.0
  0
LINE
  5
44B
100
AcDbEntity
  8
1
  6
CONTINUOUS
 62
     4
100
AcDbLine
 10
174.6
 20
152.6
 30
0.0
 11
174.44
 21
152.6
 31
0.0
  0
LINE
  5
44C
100
AcDbEntity
  8
1
  6
CONTINUOUS
 62
     4
100
AcDbLine
 10
174.54
 20
154.2
 30
0.0
 11
174.54
 21
152.6
 31
0.0
  0
LINE
  5
44D
100
AcDbEntity
  8
1
  6
CONTINUOUS
 62
     4
100
AcDbLine
 10
174.44
 20
154.2
 30
0.0
 11
174.214154
 21
153.491062
 31
0.0
  0
LINE
  5
44E
100
AcDbEntity
  8
1
  6
CONTINUOUS
 62
     4
100
AcDbLine
 10
174.44
 20
152.6
 30
0.0
 11
174.214154
 21
153.308938
 31
0.0
  0
ARC
  5
44F
100
AcDbEntity
  8
1
  6
CONTINUOUS
 62
     4
100
AcDbCircle
 10
174.5
 20
153.4
 30
0.0
 40
0.3
100
AcDbArc
 50
162.329738
 51
197.670262
  0
LINE
  5
450
100
AcDbEntity
  8
1
  6
CONTINUOUS
 62
     4
100
AcDbLine
 10
174.6
 20
118.2
 30
0.0
 11
174.44
 21
118.2
 31
0.0
  0
LINE
  5
451
100
AcDbEntity
  8
1
  6
CONTINUOUS
 62
     4
100
AcDbLine
 10
174.6
 20
116.6
 30
0.0
 11
174.44
 21
116.6
 31
0.0
  0
LINE
  5
452
100
AcDbEntity
  8
1
  6
CONTINUOUS
 62
     4
100
AcDbLine
 10
174.54
 20
118.2
 30
0.0
 11
174.54
 21
116.6
 31
0.0
  0
LINE
  5
453
100
AcDbEntity
  8
1
  6
CONTINUOUS
 62
     4
100
AcDbLine
 10
174.44
 20
118.2
 30
0.0
 11
174.214154
 21
117.491062
 31
0.0
  0
LINE
  5
454
100
AcDbEntity
  8
1
  6
CONTINUOUS
 62
     4
100
AcDbLine
 10
174.44
 20
116.6
 30
0.0
 11
174.214154
 21
117.308938
 31
0.0
  0
ARC
  5
455
100
AcDbEntity
  8
1
  6
CONTINUOUS
 62
     4
100
AcDbCircle
 10
174.5
 20
117.4
 30
0.0
 40
0.3
100
AcDbArc
 50
162.329738
 51
197.670262
  0
LINE
  5
456
100
AcDbEntity
  8
1
  6
CONTINUOUS
 62
     4
100
AcDbLine
 10
174.6
 20
114.2
 30
0.0
 11
174.44
 21
114.2
 31
0.0
  0
LINE
  5
457
100
AcDbEntity
  8
1
  6
CONTINUOUS
 62
     4
100
AcDbLine
 10
174.6
 20
112.6
 30
0.0
 11
174.44
 21
112.6
 31
0.0
  0
LINE
  5
458
100
AcDbEntity
  8
1
  6
CONTINUOUS
 62
     4
100
AcDbLine
 10
174.54
 20
114.2
 30
0.0
 11
174.54
 21
112.6
 31
0.0
  0
LINE
  5
459
100
AcDbEntity
  8
1
  6
CONTINUOUS
 62
     4
100
AcDbLine
 10
174.44
 20
114.2
 30
0.0
 11
174.214154
 21
113.491062
 31
0.0
  0
LINE
  5
45A
100
AcDbEntity
  8
1
  6
CONTINUOUS
 62
     4
100
AcDbLine
 10
174.44
 20
112.6
 30
0.0
 11
174.214154
 21
113.308938
 31
0.0
  0
ARC
  5
45B
100
AcDbEntity
  8
1
  6
CONTINUOUS
 62
     4
100
AcDbCircle
 10
174.5
 20
113.4
 30
0.0
 40
0.3
100
AcDbArc
 50
162.329738
 51
197.670262
  0
LINE
  5
45C
100
AcDbEntity
  8
1
  6
CONTINUOUS
 62
     4
100
AcDbLine
 10
174.6
 20
110.2
 30
0.0
 11
174.44
 21
110.2
 31
0.0
  0
LINE
  5
45D
100
AcDbEntity
  8
1
  6
CONTINUOUS
 62
     4
100
AcDbLine
 10
174.6
 20
108.6
 30
0.0
 11
174.44
 21
108.6
 31
0.0
  0
LINE
  5
45E
100
AcDbEntity
  8
1
  6
CONTINUOUS
 62
     4
100
AcDbLine
 10
174.54
 20
110.2
 30
0.0
 11
174.54
 21
108.6
 31
0.0
  0
LINE
  5
45F
100
AcDbEntity
  8
1
  6
CONTINUOUS
 62
     4
100
AcDbLine
 10
174.44
 20
110.2
 30
0.0
 11
174.214154
 21
109.491062
 31
0.0
  0
LINE
  5
460
100
AcDbEntity
  8
1
  6
CONTINUOUS
 62
     4
100
AcDbLine
 10
174.44
 20
108.6
 30
0.0
 11
174.214154
 21
109.308938
 31
0.0
  0
ARC
  5
461
100
AcDbEntity
  8
1
  6
CONTINUOUS
 62
     4
100
AcDbCircle
 10
174.5
 20
109.4
 30
0.0
 40
0.3
100
AcDbArc
 50
162.329738
 51
197.670262
  0
LINE
  5
462
100
AcDbEntity
  8
1
  6
CONTINUOUS
 62
     4
100
AcDbLine
 10
174.6
 20
106.2
 30
0.0
 11
174.44
 21
106.2
 31
0.0
  0
LINE
  5
463
100
AcDbEntity
  8
1
  6
CONTINUOUS
 62
     4
100
AcDbLine
 10
174.6
 20
104.6
 30
0.0
 11
174.44
 21
104.6
 31
0.0
  0
LINE
  5
464
100
AcDbEntity
  8
1
  6
CONTINUOUS
 62
     4
100
AcDbLine
 10
174.54
 20
106.2
 30
0.0
 11
174.54
 21
104.6
 31
0.0
  0
LINE
  5
465
100
AcDbEntity
  8
1
  6
CONTINUOUS
 62
     4
100
AcDbLine
 10
174.44
 20
106.2
 30
0.0
 11
174.214154
 21
105.491062
 31
0.0
  0
LINE
  5
466
100
AcDbEntity
  8
1
  6
CONTINUOUS
 62
     4
100
AcDbLine
 10
174.44
 20
104.6
 30
0.0
 11
174.214154
 21
105.308938
 31
0.0
  0
ARC
  5
467
100
AcDbEntity
  8
1
  6
CONTINUOUS
 62
     4
100
AcDbCircle
 10
174.5
 20
105.4
 30
0.0
 40
0.3
100
AcDbArc
 50
162.329738
 51
197.670262
  0
LINE
  5
468
100
AcDbEntity
  8
1
  6
CONTINUOUS
 62
     2
100
AcDbLine
 10
174.6
 20
156.6
 30
0.0
 11
174.6
 21
154.2
 31
0.0
  0
LINE
  5
469
100
AcDbEntity
  8
1
  6
CONTINUOUS
 62
     2
100
AcDbLine
 10
174.6
 20
152.6
 30
0.0
 11
174.6
 21
150.2
 31
0.0
  0
LINE
  5
46A
100
AcDbEntity
  8
1
  6
CONTINUOUS
 62
     2
100
AcDbLine
 10
174.6
 20
148.6
 30
0.0
 11
174.6
 21
146.2
 31
0.0
  0
LINE
  5
46B
100
AcDbEntity
  8
1
  6
CONTINUOUS
 62
     2
100
AcDbLine
 10
174.6
 20
144.6
 30
0.0
 11
174.6
 21
142.2
 31
0.0
  0
LINE
  5
46C
100
AcDbEntity
  8
1
  6
CONTINUOUS
 62
     2
100
AcDbLine
 10
174.6
 20
116.6
 30
0.0
 11
174.6
 21
114.2
 31
0.0
  0
LINE
  5
46D
100
AcDbEntity
  8
1
  6
CONTINUOUS
 62
     2
100
AcDbLine
 10
174.6
 20
112.6
 30
0.0
 11
174.6
 21
110.2
 31
0.0
  0
LINE
  5
46E
100
AcDbEntity
  8
1
  6
CONTINUOUS
 62
     2
100
AcDbLine
 10
174.6
 20
108.6
 30
0.0
 11
174.6
 21
106.2
 31
0.0
  0
LINE
  5
46F
100
AcDbEntity
  8
1
  6
CONTINUOUS
 62
     2
100
AcDbLine
 10
174.6
 20
104.6
 30
0.0
 11
174.6
 21
102.2
 31
0.0
  0
LINE
  5
470
100
AcDbEntity
  8
1
  6
CONTINUOUS
 62
     4
100
AcDbLine
 10
174.6
 20
88.6
 30
0.0
 11
174.44
 21
88.6
 31
0.0
  0
LINE
  5
471
100
AcDbEntity
  8
1
  6
CONTINUOUS
 62
     4
100
AcDbLine
 10
174.6
 20
90.2
 30
0.0
 11
174.44
 21
90.2
 31
0.0
  0
LINE
  5
472
100
AcDbEntity
  8
1
  6
CONTINUOUS
 62
     4
100
AcDbLine
 10
174.54
 20
88.6
 30
0.0
 11
174.54
 21
90.2
 31
0.0
  0
LINE
  5
473
100
AcDbEntity
  8
1
  6
CONTINUOUS
 62
     4
100
AcDbLine
 10
174.44
 20
88.6
 30
0.0
 11
174.214154
 21
89.308938
 31
0.0
  0
LINE
  5
474
100
AcDbEntity
  8
1
  6
CONTINUOUS
 62
     4
100
AcDbLine
 10
174.44
 20
90.2
 30
0.0
 11
174.214154
 21
89.491062
 31
0.0
  0
ARC
  5
475
100
AcDbEntity
  8
1
  6
CONTINUOUS
 62
     4
100
AcDbCircle
 10
174.5
 20
89.4
 30
0.0
 40
0.3
100
AcDbArc
 50
162.329738
 51
197.670262
  0
LINE
  5
476
100
AcDbEntity
  8
1
  6
CONTINUOUS
 62
     4
100
AcDbLine
 10
174.6
 20
92.6
 30
0.0
 11
174.44
 21
92.6
 31
0.0
  0
LINE
  5
477
100
AcDbEntity
  8
1
  6
CONTINUOUS
 62
     4
100
AcDbLine
 10
174.6
 20
94.2
 30
0.0
 11
174.44
 21
94.2
 31
0.0
  0
LINE
  5
478
100
AcDbEntity
  8
1
  6
CONTINUOUS
 62
     4
100
AcDbLine
 10
174.54
 20
92.6
 30
0.0
 11
174.54
 21
94.2
 31
0.0
  0
LINE
  5
479
100
AcDbEntity
  8
1
  6
CONTINUOUS
 62
     4
100
AcDbLine
 10
174.44
 20
92.6
 30
0.0
 11
174.214154
 21
93.308938
 31
0.0
  0
LINE
  5
47A
100
AcDbEntity
  8
1
  6
CONTINUOUS
 62
     4
100
AcDbLine
 10
174.44
 20
94.2
 30
0.0
 11
174.214154
 21
93.491062
 31
0.0
  0
ARC
  5
47B
100
AcDbEntity
  8
1
  6
CONTINUOUS
 62
     4
100
AcDbCircle
 10
174.5
 20
93.4
 30
0.0
 40
0.3
100
AcDbArc
 50
162.329738
 51
197.670262
  0
LINE
  5
47C
100
AcDbEntity
  8
1
  6
CONTINUOUS
 62
     4
100
AcDbLine
 10
174.6
 20
96.6
 30
0.0
 11
174.44
 21
96.6
 31
0.0
  0
LINE
  5
47D
100
AcDbEntity
  8
1
  6
CONTINUOUS
 62
     4
100
AcDbLine
 10
174.6
 20
98.2
 30
0.0
 11
174.44
 21
98.2
 31
0.0
  0
LINE
  5
47E
100
AcDbEntity
  8
1
  6
CONTINUOUS
 62
     4
100
AcDbLine
 10
174.54
 20
96.6
 30
0.0
 11
174.54
 21
98.2
 31
0.0
  0
LINE
  5
47F
100
AcDbEntity
  8
1
  6
CONTINUOUS
 62
     4
100
AcDbLine
 10
174.44
 20
96.6
 30
0.0
 11
174.214154
 21
97.308938
 31
0.0
  0
LINE
  5
480
100
AcDbEntity
  8
1
  6
CONTINUOUS
 62
     4
100
AcDbLine
 10
174.44
 20
98.2
 30
0.0
 11
174.214154
 21
97.491062
 31
0.0
  0
ARC
  5
481
100
AcDbEntity
  8
1
  6
CONTINUOUS
 62
     4
100
AcDbCircle
 10
174.5
 20
97.4
 30
0.0
 40
0.3
100
AcDbArc
 50
162.329738
 51
197.670262
  0
LINE
  5
482
100
AcDbEntity
  8
1
  6
CONTINUOUS
 62
     4
100
AcDbLine
 10
174.6
 20
100.6
 30
0.0
 11
174.44
 21
100.6
 31
0.0
  0
LINE
  5
483
100
AcDbEntity
  8
1
  6
CONTINUOUS
 62
     4
100
AcDbLine
 10
174.6
 20
102.2
 30
0.0
 11
174.44
 21
102.2
 31
0.0
  0
LINE
  5
484
100
AcDbEntity
  8
1
  6
CONTINUOUS
 62
     4
100
AcDbLine
 10
174.54
 20
100.6
 30
0.0
 11
174.54
 21
102.2
 31
0.0
  0
LINE
  5
485
100
AcDbEntity
  8
1
  6
CONTINUOUS
 62
     4
100
AcDbLine
 10
174.44
 20
100.6
 30
0.0
 11
174.214154
 21
101.308938
 31
0.0
  0
LINE
  5
486
100
AcDbEntity
  8
1
  6
CONTINUOUS
 62
     4
100
AcDbLine
 10
174.44
 20
102.2
 30
0.0
 11
174.214154
 21
101.491062
 31
0.0
  0
ARC
  5
487
100
AcDbEntity
  8
1
  6
CONTINUOUS
 62
     4
100
AcDbCircle
 10
174.5
 20
101.4
 30
0.0
 40
0.3
100
AcDbArc
 50
162.329738
 51
197.670262
  0
LINE
  5
488
100
AcDbEntity
  8
1
  6
CONTINUOUS
 62
     2
100
AcDbLine
 10
174.6
 20
90.2
 30
0.0
 11
174.6
 21
92.6
 31
0.0
  0
LINE
  5
489
100
AcDbEntity
  8
1
  6
CONTINUOUS
 62
     2
100
AcDbLine
 10
174.6
 20
94.2
 30
0.0
 11
174.6
 21
96.6
 31
0.0
  0
LINE
  5
48A
100
AcDbEntity
  8
1
  6
CONTINUOUS
 62
     2
100
AcDbLine
 10
174.6
 20
98.2
 30
0.0
 11
174.6
 21
100.6
 31
0.0
  0
LINE
  5
48B
100
AcDbEntity
  8
1
  6
CONTINUOUS
 62
     4
100
AcDbLine
 10
174.6
 20
170.2
 30
0.0
 11
174.44
 21
170.2
 31
0.0
  0
LINE
  5
48C
100
AcDbEntity
  8
1
  6
CONTINUOUS
 62
     4
100
AcDbLine
 10
174.6
 20
168.6
 30
0.0
 11
174.44
 21
168.6
 31
0.0
  0
LINE
  5
48D
100
AcDbEntity
  8
1
  6
CONTINUOUS
 62
     4
100
AcDbLine
 10
174.54
 20
170.2
 30
0.0
 11
174.54
 21
168.6
 31
0.0
  0
LINE
  5
48E
100
AcDbEntity
  8
1
  6
CONTINUOUS
 62
     4
100
AcDbLine
 10
174.44
 20
170.2
 30
0.0
 11
174.214154
 21
169.491062
 31
0.0
  0
LINE
  5
48F
100
AcDbEntity
  8
1
  6
CONTINUOUS
 62
     4
100
AcDbLine
 10
174.44
 20
168.6
 30
0.0
 11
174.214154
 21
169.308938
 31
0.0
  0
ARC
  5
490
100
AcDbEntity
  8
1
  6
CONTINUOUS
 62
     4
100
AcDbCircle
 10
174.5
 20
169.4
 30
0.0
 40
0.3
100
AcDbArc
 50
162.329738
 51
197.670262
  0
LINE
  5
491
100
AcDbEntity
  8
1
  6
CONTINUOUS
 62
     4
100
AcDbLine
 10
174.6
 20
166.2
 30
0.0
 11
174.44
 21
166.2
 31
0.0
  0
LINE
  5
492
100
AcDbEntity
  8
1
  6
CONTINUOUS
 62
     4
100
AcDbLine
 10
174.6
 20
164.6
 30
0.0
 11
174.44
 21
164.6
 31
0.0
  0
LINE
  5
493
100
AcDbEntity
  8
1
  6
CONTINUOUS
 62
     4
100
AcDbLine
 10
174.54
 20
166.2
 30
0.0
 11
174.54
 21
164.6
 31
0.0
  0
LINE
  5
494
100
AcDbEntity
  8
1
  6
CONTINUOUS
 62
     4
100
AcDbLine
 10
174.44
 20
166.2
 30
0.0
 11
174.214154
 21
165.491062
 31
0.0
  0
LINE
  5
495
100
AcDbEntity
  8
1
  6
CONTINUOUS
 62
     4
100
AcDbLine
 10
174.44
 20
164.6
 30
0.0
 11
174.214154
 21
165.308938
 31
0.0
  0
ARC
  5
496
100
AcDbEntity
  8
1
  6
CONTINUOUS
 62
     4
100
AcDbCircle
 10
174.5
 20
165.4
 30
0.0
 40
0.3
100
AcDbArc
 50
162.329738
 51
197.670262
  0
LINE
  5
497
100
AcDbEntity
  8
1
  6
CONTINUOUS
 62
     4
100
AcDbLine
 10
174.6
 20
162.2
 30
0.0
 11
174.44
 21
162.2
 31
0.0
  0
LINE
  5
498
100
AcDbEntity
  8
1
  6
CONTINUOUS
 62
     4
100
AcDbLine
 10
174.6
 20
160.6
 30
0.0
 11
174.44
 21
160.6
 31
0.0
  0
LINE
  5
499
100
AcDbEntity
  8
1
  6
CONTINUOUS
 62
     4
100
AcDbLine
 10
174.54
 20
162.2
 30
0.0
 11
174.54
 21
160.6
 31
0.0
  0
LINE
  5
49A
100
AcDbEntity
  8
1
  6
CONTINUOUS
 62
     4
100
AcDbLine
 10
174.44
 20
162.2
 30
0.0
 11
174.214154
 21
161.491062
 31
0.0
  0
LINE
  5
49B
100
AcDbEntity
  8
1
  6
CONTINUOUS
 62
     4
100
AcDbLine
 10
174.44
 20
160.6
 30
0.0
 11
174.214154
 21
161.308938
 31
0.0
  0
ARC
  5
49C
100
AcDbEntity
  8
1
  6
CONTINUOUS
 62
     4
100
AcDbCircle
 10
174.5
 20
161.4
 30
0.0
 40
0.3
100
AcDbArc
 50
162.329738
 51
197.670262
  0
LINE
  5
49D
100
AcDbEntity
  8
1
  6
CONTINUOUS
 62
     4
100
AcDbLine
 10
174.6
 20
158.2
 30
0.0
 11
174.44
 21
158.2
 31
0.0
  0
LINE
  5
49E
100
AcDbEntity
  8
1
  6
CONTINUOUS
 62
     4
100
AcDbLine
 10
174.6
 20
156.6
 30
0.0
 11
174.44
 21
156.6
 31
0.0
  0
LINE
  5
49F
100
AcDbEntity
  8
1
  6
CONTINUOUS
 62
     4
100
AcDbLine
 10
174.54
 20
158.2
 30
0.0
 11
174.54
 21
156.6
 31
0.0
  0
LINE
  5
4A0
100
AcDbEntity
  8
1
  6
CONTINUOUS
 62
     4
100
AcDbLine
 10
174.44
 20
158.2
 30
0.0
 11
174.214154
 21
157.491062
 31
0.0
  0
LINE
  5
4A1
100
AcDbEntity
  8
1
  6
CONTINUOUS
 62
     4
100
AcDbLine
 10
174.44
 20
156.6
 30
0.0
 11
174.214154
 21
157.308938
 31
0.0
  0
ARC
  5
4A2
100
AcDbEntity
  8
1
  6
CONTINUOUS
 62
     4
100
AcDbCircle
 10
174.5
 20
157.4
 30
0.0
 40
0.3
100
AcDbArc
 50
162.329738
 51
197.670262
  0
LINE
  5
4A3
100
AcDbEntity
  8
1
  6
CONTINUOUS
 62
     2
100
AcDbLine
 10
174.6
 20
164.6
 30
0.0
 11
174.6
 21
162.2
 31
0.0
  0
LINE
  5
4A4
100
AcDbEntity
  8
1
  6
CONTINUOUS
 62
     2
100
AcDbLine
 10
174.6
 20
160.6
 30
0.0
 11
174.6
 21
158.2
 31
0.0
  0
LINE
  5
4A5
100
AcDbEntity
  8
1
  6
CONTINUOUS
 62
     2
100
AcDbLine
 10
174.6
 20
168.6
 30
0.0
 11
174.6
 21
166.2
 31
0.0
  0
LINE
  5
4A6
100
AcDbEntity
  8
1
  6
CONTINUOUS
 62
     4
100
AcDbLine
 10
174.6
 20
172.6
 30
0.0
 11
174.44
 21
172.6
 31
0.0
  0
LINE
  5
4A7
100
AcDbEntity
  8
1
  6
CONTINUOUS
 62
     4
100
AcDbLine
 10
174.6
 20
174.2
 30
0.0
 11
174.44
 21
174.2
 31
0.0
  0
LINE
  5
4A8
100
AcDbEntity
  8
1
  6
CONTINUOUS
 62
     4
100
AcDbLine
 10
174.54
 20
172.6
 30
0.0
 11
174.54
 21
174.2
 31
0.0
  0
LINE
  5
4A9
100
AcDbEntity
  8
1
  6
CONTINUOUS
 62
     4
100
AcDbLine
 10
174.44
 20
172.6
 30
0.0
 11
174.214154
 21
173.308938
 31
0.0
  0
LINE
  5
4AA
100
AcDbEntity
  8
1
  6
CONTINUOUS
 62
     4
100
AcDbLine
 10
174.44
 20
174.2
 30
0.0
 11
174.214154
 21
173.491062
 31
0.0
  0
ARC
  5
4AB
100
AcDbEntity
  8
1
  6
CONTINUOUS
 62
     4
100
AcDbCircle
 10
174.5
 20
173.4
 30
0.0
 40
0.3
100
AcDbArc
 50
162.329738
 51
197.670262
  0
LINE
  5
4AC
100
AcDbEntity
  8
1
  6
CONTINUOUS
 62
     6
100
AcDbLine
 10
192.3
 20
82.4
 30
0.0
 11
191.313333
 21
82.8
 31
0.0
  0
LINE
  5
4AD
100
AcDbEntity
  8
1
  6
CONTINUOUS
 62
     6
100
AcDbLine
 10
192.3
 20
82.4
 30
0.0
 11
191.313333
 21
82.0
 31
0.0
  0
LINE
  5
4AE
100
AcDbEntity
  8
1
  6
CONTINUOUS
 62
     6
100
AcDbLine
 10
191.977213
 20
82.63086
 30
0.0
 11
192.056807
 21
82.201408
 31
0.0
  0
LINE
  5
4AF
100
AcDbEntity
  8
1
  6
CONTINUOUS
 62
     6
100
AcDbLine
 10
191.313333
 20
82.8
 30
0.0
 11
182.9
 21
82.8
 31
0.0
  0
LINE
  5
4B0
100
AcDbEntity
  8
1
  6
CONTINUOUS
 62
     6
100
AcDbLine
 10
191.313333
 20
82.0
 30
0.0
 11
182.9
 21
82.0
 31
0.0
  0
LINE
  5
4B1
100
AcDbEntity
  8
1
  6
CONTINUOUS
 62
     6
100
AcDbLine
 10
191.535766
 20
82.81773
 30
0.0
 11
191.679788
 21
82.040658
 31
0.0
  0
LINE
  5
4B2
100
AcDbEntity
  8
1
  6
CONTINUOUS
 62
     6
100
AcDbLine
 10
191.113706
 20
82.9
 30
0.0
 11
191.299045
 21
81.9
 31
0.0
  0
LINE
  5
4B3
100
AcDbEntity
  8
1
  6
CONTINUOUS
 62
     6
100
AcDbLine
 10
190.706894
 20
82.9
 30
0.0
 11
190.892233
 21
81.9
 31
0.0
  0
LINE
  5
4B4
100
AcDbEntity
  8
1
  6
CONTINUOUS
 62
     6
100
AcDbLine
 10
190.300082
 20
82.9
 30
0.0
 11
190.483599
 21
81.909831
 31
0.0
  0
LINE
  5
4B5
100
AcDbEntity
  8
1
  6
CONTINUOUS
 62
     6
100
AcDbLine
 10
189.89327
 20
82.9
 30
0.0
 11
190.078609
 21
81.9
 31
0.0
  0
LINE
  5
4B6
100
AcDbEntity
  8
1
  6
CONTINUOUS
 62
     6
100
AcDbLine
 10
189.486458
 20
82.9
 30
0.0
 11
189.671797
 21
81.9
 31
0.0
  0
LINE
  5
4B7
100
AcDbEntity
  8
1
  6
CONTINUOUS
 62
     6
100
AcDbLine
 10
189.079646
 20
82.9
 30
0.0
 11
189.264985
 21
81.9
 31
0.0
  0
LINE
  5
4B8
100
AcDbEntity
  8
1
  6
CONTINUOUS
 62
     6
100
AcDbLine
 10
188.672834
 20
82.9
 30
0.0
 11
188.858173
 21
81.9
 31
0.0
  0
LINE
  5
4B9
100
AcDbEntity
  8
1
  6
CONTINUOUS
 62
     6
100
AcDbLine
 10
188.266022
 20
82.9
 30
0.0
 11
188.451361
 21
81.9
 31
0.0
  0
LINE
  5
4BA
100
AcDbEntity
  8
1
  6
CONTINUOUS
 62
     6
100
AcDbLine
 10
187.859209
 20
82.9
 30
0.0
 11
188.044548
 21
81.9
 31
0.0
  0
LINE
  5
4BB
100
AcDbEntity
  8
1
  6
CONTINUOUS
 62
     6
100
AcDbLine
 10
187.452397
 20
82.9
 30
0.0
 11
187.637736
 21
81.9
 31
0.0
  0
LINE
  5
4BC
100
AcDbEntity
  8
1
  6
CONTINUOUS
 62
     6
100
AcDbLine
 10
187.045585
 20
82.9
 30
0.0
 11
187.230924
 21
81.9
 31
0.0
  0
LINE
  5
4BD
100
AcDbEntity
  8
1
  6
CONTINUOUS
 62
     6
100
AcDbLine
 10
186.638773
 20
82.9
 30
0.0
 11
186.824112
 21
81.9
 31
0.0
  0
LINE
  5
4BE
100
AcDbEntity
  8
1
  6
CONTINUOUS
 62
     6
100
AcDbLine
 10
186.231961
 20
82.9
 30
0.0
 11
186.4173
 21
81.9
 31
0.0
  0
LINE
  5
4BF
100
AcDbEntity
  8
1
  6
CONTINUOUS
 62
     6
100
AcDbLine
 10
185.825149
 20
82.9
 30
0.0
 11
186.010488
 21
81.9
 31
0.0
  0
LINE
  5
4C0
100
AcDbEntity
  8
1
  6
CONTINUOUS
 62
     6
100
AcDbLine
 10
185.418337
 20
82.9
 30
0.0
 11
185.603676
 21
81.9
 31
0.0
  0
LINE
  5
4C1
100
AcDbEntity
  8
1
  6
CONTINUOUS
 62
     6
100
AcDbLine
 10
185.011525
 20
82.9
 30
0.0
 11
185.196864
 21
81.9
 31
0.0
  0
LINE
  5
4C2
100
AcDbEntity
  8
1
  6
CONTINUOUS
 62
     6
100
AcDbLine
 10
184.604713
 20
82.9
 30
0.0
 11
184.790052
 21
81.9
 31
0.0
  0
LINE
  5
4C3
100
AcDbEntity
  8
1
  6
CONTINUOUS
 62
     6
100
AcDbLine
 10
184.1979
 20
82.9
 30
0.0
 11
184.38324
 21
81.9
 31
0.0
  0
LINE
  5
4C4
100
AcDbEntity
  8
1
  6
CONTINUOUS
 62
     6
100
AcDbLine
 10
183.791088
 20
82.9
 30
0.0
 11
183.976427
 21
81.9
 31
0.0
  0
LINE
  5
4C5
100
AcDbEntity
  8
1
  6
CONTINUOUS
 62
     6
100
AcDbLine
 10
183.384276
 20
82.9
 30
0.0
 11
183.569615
 21
81.9
 31
0.0
  0
LINE
  5
4C6
100
AcDbEntity
  8
1
  6
CONTINUOUS
 62
     6
100
AcDbLine
 10
182.977464
 20
82.9
 30
0.0
 11
183.162803
 21
81.9
 31
0.0
  0
LINE
  5
4C7
100
AcDbEntity
  8
1
  6
CONTINUOUS
 62
     6
100
AcDbLine
 10
192.3
 20
79.4
 30
0.0
 11
191.313333
 21
79.8
 31
0.0
  0
LINE
  5
4C8
100
AcDbEntity
  8
1
  6
CONTINUOUS
 62
     6
100
AcDbLine
 10
192.3
 20
79.4
 30
0.0
 11
191.313333
 21
79.0
 31
0.0
  0
LINE
  5
4C9
100
AcDbEntity
  8
1
  6
CONTINUOUS
 62
     6
100
AcDbLine
 10
191.977213
 20
79.63086
 30
0.0
 11
192.056807
 21
79.201408
 31
0.0
  0
LINE
  5
4CA
100
AcDbEntity
  8
1
  6
CONTINUOUS
 62
     6
100
AcDbLine
 10
191.313333
 20
79.8
 30
0.0
 11
182.9
 21
79.8
 31
0.0
  0
LINE
  5
4CB
100
AcDbEntity
  8
1
  6
CONTINUOUS
 62
     6
100
AcDbLine
 10
191.313333
 20
79.0
 30
0.0
 11
182.9
 21
79.0
 31
0.0
  0
LINE
  5
4CC
100
AcDbEntity
  8
1
  6
CONTINUOUS
 62
     6
100
AcDbLine
 10
191.535766
 20
79.81773
 30
0.0
 11
191.679788
 21
79.040658
 31
0.0
  0
LINE
  5
4CD
100
AcDbEntity
  8
1
  6
CONTINUOUS
 62
     6
100
AcDbLine
 10
191.113706
 20
79.9
 30
0.0
 11
191.299045
 21
78.9
 31
0.0
  0
LINE
  5
4CE
100
AcDbEntity
  8
1
  6
CONTINUOUS
 62
     6
100
AcDbLine
 10
190.706894
 20
79.9
 30
0.0
 11
190.892233
 21
78.9
 31
0.0
  0
LINE
  5
4CF
100
AcDbEntity
  8
1
  6
CONTINUOUS
 62
     6
100
AcDbLine
 10
190.300082
 20
79.9
 30
0.0
 11
190.483599
 21
78.909831
 31
0.0
  0
LINE
  5
4D0
100
AcDbEntity
  8
1
  6
CONTINUOUS
 62
     6
100
AcDbLine
 10
189.89327
 20
79.9
 30
0.0
 11
190.078609
 21
78.9
 31
0.0
  0
LINE
  5
4D1
100
AcDbEntity
  8
1
  6
CONTINUOUS
 62
     6
100
AcDbLine
 10
189.486458
 20
79.9
 30
0.0
 11
189.671797
 21
78.9
 31
0.0
  0
LINE
  5
4D2
100
AcDbEntity
  8
1
  6
CONTINUOUS
 62
     6
100
AcDbLine
 10
189.079646
 20
79.9
 30
0.0
 11
189.264985
 21
78.9
 31
0.0
  0
LINE
  5
4D3
100
AcDbEntity
  8
1
  6
CONTINUOUS
 62
     6
100
AcDbLine
 10
188.672834
 20
79.9
 30
0.0
 11
188.858173
 21
78.9
 31
0.0
  0
LINE
  5
4D4
100
AcDbEntity
  8
1
  6
CONTINUOUS
 62
     6
100
AcDbLine
 10
188.266022
 20
79.9
 30
0.0
 11
188.451361
 21
78.9
 31
0.0
  0
LINE
  5
4D5
100
AcDbEntity
  8
1
  6
CONTINUOUS
 62
     6
100
AcDbLine
 10
187.859209
 20
79.9
 30
0.0
 11
188.044548
 21
78.9
 31
0.0
  0
LINE
  5
4D6
100
AcDbEntity
  8
1
  6
CONTINUOUS
 62
     6
100
AcDbLine
 10
187.452397
 20
79.9
 30
0.0
 11
187.637736
 21
78.9
 31
0.0
  0
LINE
  5
4D7
100
AcDbEntity
  8
1
  6
CONTINUOUS
 62
     6
100
AcDbLine
 10
187.045585
 20
79.9
 30
0.0
 11
187.230924
 21
78.9
 31
0.0
  0
LINE
  5
4D8
100
AcDbEntity
  8
1
  6
CONTINUOUS
 62
     6
100
AcDbLine
 10
186.638773
 20
79.9
 30
0.0
 11
186.824112
 21
78.9
 31
0.0
  0
LINE
  5
4D9
100
AcDbEntity
  8
1
  6
CONTINUOUS
 62
     6
100
AcDbLine
 10
186.231961
 20
79.9
 30
0.0
 11
186.4173
 21
78.9
 31
0.0
  0
LINE
  5
4DA
100
AcDbEntity
  8
1
  6
CONTINUOUS
 62
     6
100
AcDbLine
 10
185.825149
 20
79.9
 30
0.0
 11
186.010488
 21
78.9
 31
0.0
  0
LINE
  5
4DB
100
AcDbEntity
  8
1
  6
CONTINUOUS
 62
     6
100
AcDbLine
 10
185.418337
 20
79.9
 30
0.0
 11
185.603676
 21
78.9
 31
0.0
  0
LINE
  5
4DC
100
AcDbEntity
  8
1
  6
CONTINUOUS
 62
     6
100
AcDbLine
 10
185.011525
 20
79.9
 30
0.0
 11
185.196864
 21
78.9
 31
0.0
  0
LINE
  5
4DD
100
AcDbEntity
  8
1
  6
CONTINUOUS
 62
     6
100
AcDbLine
 10
184.604713
 20
79.9
 30
0.0
 11
184.790052
 21
78.9
 31
0.0
  0
LINE
  5
4DE
100
AcDbEntity
  8
1
  6
CONTINUOUS
 62
     6
100
AcDbLine
 10
184.1979
 20
79.9
 30
0.0
 11
184.38324
 21
78.9
 31
0.0
  0
LINE
  5
4DF
100
AcDbEntity
  8
1
  6
CONTINUOUS
 62
     6
100
AcDbLine
 10
183.791088
 20
79.9
 30
0.0
 11
183.976427
 21
78.9
 31
0.0
  0
LINE
  5
4E0
100
AcDbEntity
  8
1
  6
CONTINUOUS
 62
     6
100
AcDbLine
 10
183.384276
 20
79.9
 30
0.0
 11
183.569615
 21
78.9
 31
0.0
  0
LINE
  5
4E1
100
AcDbEntity
  8
1
  6
CONTINUOUS
 62
     6
100
AcDbLine
 10
182.977464
 20
79.9
 30
0.0
 11
183.162803
 21
78.9
 31
0.0
  0
LINE
  5
4E2
100
AcDbEntity
  8
1
  6
EXLTYPE3
 62
     1
100
AcDbLine
 10
133.9
 20
80.4
 30
0.0
 11
133.9
 21
84.4
 31
0.0
  0
LINE
  5
4E3
100
AcDbEntity
  8
1
  6
CONTINUOUS
 62
     4
100
AcDbLine
 10
78.1
 20
218.0
 30
0.0
 11
78.1
 21
217.84
 31
0.0
  0
LINE
  5
4E4
100
AcDbEntity
  8
1
  6
CONTINUOUS
 62
     4
100
AcDbLine
 10
79.7
 20
218.0
 30
0.0
 11
79.7
 21
217.84
 31
0.0
  0
LINE
  5
4E5
100
AcDbEntity
  8
1
  6
CONTINUOUS
 62
     4
100
AcDbLine
 10
78.1
 20
217.94
 30
0.0
 11
79.7
 21
217.94
 31
0.0
  0
LINE
  5
4E6
100
AcDbEntity
  8
1
  6
CONTINUOUS
 62
     4
100
AcDbLine
 10
78.1
 20
217.84
 30
0.0
 11
78.808938
 21
217.614154
 31
0.0
  0
LINE
  5
4E7
100
AcDbEntity
  8
1
  6
CONTINUOUS
 62
     4
100
AcDbLine
 10
79.7
 20
217.84
 30
0.0
 11
78.991062
 21
217.614154
 31
0.0
  0
ARC
  5
4E8
100
AcDbEntity
  8
1
  6
CONTINUOUS
 62
     4
100
AcDbCircle
 10
78.9
 20
217.9
 30
0.0
 40
0.3
100
AcDbArc
 50
252.329738
 51
287.670262
  0
LINE
  5
4E9
100
AcDbEntity
  8
1
  6
CONTINUOUS
 62
     4
100
AcDbLine
 10
82.1
 20
218.0
 30
0.0
 11
82.1
 21
217.84
 31
0.0
  0
LINE
  5
4EA
100
AcDbEntity
  8
1
  6
CONTINUOUS
 62
     4
100
AcDbLine
 10
83.7
 20
218.0
 30
0.0
 11
83.7
 21
217.84
 31
0.0
  0
LINE
  5
4EB
100
AcDbEntity
  8
1
  6
CONTINUOUS
 62
     4
100
AcDbLine
 10
82.1
 20
217.94
 30
0.0
 11
83.7
 21
217.94
 31
0.0
  0
LINE
  5
4EC
100
AcDbEntity
  8
1
  6
CONTINUOUS
 62
     4
100
AcDbLine
 10
82.1
 20
217.84
 30
0.0
 11
82.808938
 21
217.614154
 31
0.0
  0
LINE
  5
4ED
100
AcDbEntity
  8
1
  6
CONTINUOUS
 62
     4
100
AcDbLine
 10
83.7
 20
217.84
 30
0.0
 11
82.991062
 21
217.614154
 31
0.0
  0
ARC
  5
4EE
100
AcDbEntity
  8
1
  6
CONTINUOUS
 62
     4
100
AcDbCircle
 10
82.9
 20
217.9
 30
0.0
 40
0.3
100
AcDbArc
 50
252.329738
 51
287.670262
  0
LINE
  5
4EF
100
AcDbEntity
  8
1
  6
CONTINUOUS
 62
     4
100
AcDbLine
 10
94.1
 20
218.0
 30
0.0
 11
94.1
 21
217.84
 31
0.0
  0
LINE
  5
4F0
100
AcDbEntity
  8
1
  6
CONTINUOUS
 62
     4
100
AcDbLine
 10
95.7
 20
218.0
 30
0.0
 11
95.7
 21
217.84
 31
0.0
  0
LINE
  5
4F1
100
AcDbEntity
  8
1
  6
CONTINUOUS
 62
     4
100
AcDbLine
 10
94.1
 20
217.94
 30
0.0
 11
95.7
 21
217.94
 31
0.0
  0
LINE
  5
4F2
100
AcDbEntity
  8
1
  6
CONTINUOUS
 62
     4
100
AcDbLine
 10
94.1
 20
217.84
 30
0.0
 11
94.808938
 21
217.614154
 31
0.0
  0
LINE
  5
4F3
100
AcDbEntity
  8
1
  6
CONTINUOUS
 62
     4
100
AcDbLine
 10
95.7
 20
217.84
 30
0.0
 11
94.991062
 21
217.614154
 31
0.0
  0
ARC
  5
4F4
100
AcDbEntity
  8
1
  6
CONTINUOUS
 62
     4
100
AcDbCircle
 10
94.9
 20
217.9
 30
0.0
 40
0.3
100
AcDbArc
 50
252.329738
 51
287.670262
  0
LINE
  5
4F5
100
AcDbEntity
  8
1
  6
CONTINUOUS
 62
     4
100
AcDbLine
 10
90.1
 20
218.0
 30
0.0
 11
90.1
 21
217.84
 31
0.0
  0
LINE
  5
4F6
100
AcDbEntity
  8
1
  6
CONTINUOUS
 62
     4
100
AcDbLine
 10
91.7
 20
218.0
 30
0.0
 11
91.7
 21
217.84
 31
0.0
  0
LINE
  5
4F7
100
AcDbEntity
  8
1
  6
CONTINUOUS
 62
     4
100
AcDbLine
 10
90.1
 20
217.94
 30
0.0
 11
91.7
 21
217.94
 31
0.0
  0
LINE
  5
4F8
100
AcDbEntity
  8
1
  6
CONTINUOUS
 62
     4
100
AcDbLine
 10
90.1
 20
217.84
 30
0.0
 11
90.808938
 21
217.614154
 31
0.0
  0
LINE
  5
4F9
100
AcDbEntity
  8
1
  6
CONTINUOUS
 62
     4
100
AcDbLine
 10
91.7
 20
217.84
 30
0.0
 11
90.991062
 21
217.614154
 31
0.0
  0
ARC
  5
4FA
100
AcDbEntity
  8
1
  6
CONTINUOUS
 62
     4
100
AcDbCircle
 10
90.9
 20
217.9
 30
0.0
 40
0.3
100
AcDbArc
 50
252.329738
 51
287.670262
  0
LINE
  5
4FB
100
AcDbEntity
  8
1
  6
CONTINUOUS
 62
     4
100
AcDbLine
 10
86.1
 20
218.0
 30
0.0
 11
86.1
 21
217.84
 31
0.0
  0
LINE
  5
4FC
100
AcDbEntity
  8
1
  6
CONTINUOUS
 62
     4
100
AcDbLine
 10
87.7
 20
218.0
 30
0.0
 11
87.7
 21
217.84
 31
0.0
  0
LINE
  5
4FD
100
AcDbEntity
  8
1
  6
CONTINUOUS
 62
     4
100
AcDbLine
 10
86.1
 20
217.84
 30
0.0
 11
86.725823
 21
217.640632
 31
0.0
  0
LINE
  5
4FE
100
AcDbEntity
  8
1
  6
CONTINUOUS
 62
     4
100
AcDbLine
 10
87.7
 20
217.84
 30
0.0
 11
87.303342
 21
217.713637
 31
0.0
  0
LINE
  5
4FF
100
AcDbEntity
  8
1
  6
CONTINUOUS
 62
     2
100
AcDbLine
 10
75.7
 20
218.0
 30
0.0
 11
78.1
 21
218.0
 31
0.0
  0
LINE
  5
500
100
AcDbEntity
  8
1
  6
CONTINUOUS
 62
     2
100
AcDbLine
 10
79.7
 20
218.0
 30
0.0
 11
82.1
 21
218.0
 31
0.0
  0
LINE
  5
501
100
AcDbEntity
  8
1
  6
CONTINUOUS
 62
     2
100
AcDbLine
 10
83.7
 20
218.0
 30
0.0
 11
86.1
 21
218.0
 31
0.0
  0
LINE
  5
502
100
AcDbEntity
  8
1
  6
CONTINUOUS
 62
     2
100
AcDbLine
 10
87.7
 20
218.0
 30
0.0
 11
90.1
 21
218.0
 31
0.0
  0
LINE
  5
503
100
AcDbEntity
  8
1
  6
CONTINUOUS
 62
     2
100
AcDbLine
 10
91.7
 20
218.0
 30
0.0
 11
94.1
 21
218.0
 31
0.0
  0
LINE
  5
504
100
AcDbEntity
  8
1
  6
CONTINUOUS
 62
     2
100
AcDbLine
 10
95.7
 20
218.0
 30
0.0
 11
98.1
 21
218.0
 31
0.0
  0
LINE
  5
505
100
AcDbEntity
  8
1
  6
CONTINUOUS
 62
     4
100
AcDbLine
 10
86.1
 20
217.94
 30
0.0
 11
86.62371
 21
217.94
 31
0.0
  0
LINE
  5
506
100
AcDbEntity
  8
1
  6
CONTINUOUS
 62
     4
100
AcDbLine
 10
87.22371
 20
217.94
 30
0.0
 11
87.7
 21
217.94
 31
0.0
  0
LINE
  5
507
100
AcDbEntity
  8
1
  6
CONTINUOUS
 62
     4
100
AcDbLine
 10
174.6
 20
138.2
 30
0.0
 11
174.44
 21
138.2
 31
0.0
  0
LINE
  5
508
100
AcDbEntity
  8
1
  6
CONTINUOUS
 62
     4
100
AcDbLine
 10
174.6
 20
136.6
 30
0.0
 11
174.44
 21
136.6
 31
0.0
  0
LINE
  5
509
100
AcDbEntity
  8
1
  6
CONTINUOUS
 62
     4
100
AcDbLine
 10
174.54
 20
138.2
 30
0.0
 11
174.54
 21
136.6
 31
0.0
  0
LINE
  5
50A
100
AcDbEntity
  8
1
  6
CONTINUOUS
 62
     4
100
AcDbLine
 10
174.44
 20
138.2
 30
0.0
 11
174.214154
 21
137.491062
 31
0.0
  0
LINE
  5
50B
100
AcDbEntity
  8
1
  6
CONTINUOUS
 62
     4
100
AcDbLine
 10
174.44
 20
136.6
 30
0.0
 11
174.214154
 21
137.308938
 31
0.0
  0
ARC
  5
50C
100
AcDbEntity
  8
1
  6
CONTINUOUS
 62
     4
100
AcDbCircle
 10
174.5
 20
137.4
 30
0.0
 40
0.3
100
AcDbArc
 50
162.329738
 51
197.670262
  0
LINE
  5
50D
100
AcDbEntity
  8
1
  6
CONTINUOUS
 62
     4
100
AcDbLine
 10
174.6
 20
134.2
 30
0.0
 11
174.44
 21
134.2
 31
0.0
  0
LINE
  5
50E
100
AcDbEntity
  8
1
  6
CONTINUOUS
 62
     4
100
AcDbLine
 10
174.6
 20
132.6
 30
0.0
 11
174.44
 21
132.6
 31
0.0
  0
LINE
  5
50F
100
AcDbEntity
  8
1
  6
CONTINUOUS
 62
     4
100
AcDbLine
 10
174.54
 20
134.2
 30
0.0
 11
174.54
 21
132.6
 31
0.0
  0
LINE
  5
510
100
AcDbEntity
  8
1
  6
CONTINUOUS
 62
     4
100
AcDbLine
 10
174.44
 20
134.2
 30
0.0
 11
174.214154
 21
133.491062
 31
0.0
  0
LINE
  5
511
100
AcDbEntity
  8
1
  6
CONTINUOUS
 62
     4
100
AcDbLine
 10
174.44
 20
132.6
 30
0.0
 11
174.214154
 21
133.308938
 31
0.0
  0
ARC
  5
512
100
AcDbEntity
  8
1
  6
CONTINUOUS
 62
     4
100
AcDbCircle
 10
174.5
 20
133.4
 30
0.0
 40
0.3
100
AcDbArc
 50
162.329738
 51
197.670262
  0
LINE
  5
513
100
AcDbEntity
  8
1
  6
CONTINUOUS
 62
     4
100
AcDbLine
 10
174.6
 20
130.2
 30
0.0
 11
174.44
 21
130.2
 31
0.0
  0
LINE
  5
514
100
AcDbEntity
  8
1
  6
CONTINUOUS
 62
     4
100
AcDbLine
 10
174.6
 20
128.6
 30
0.0
 11
174.44
 21
128.6
 31
0.0
  0
LINE
  5
515
100
AcDbEntity
  8
1
  6
CONTINUOUS
 62
     4
100
AcDbLine
 10
174.44
 20
130.2
 30
0.0
 11
174.240632
 21
129.574177
 31
0.0
  0
LINE
  5
516
100
AcDbEntity
  8
1
  6
CONTINUOUS
 62
     4
100
AcDbLine
 10
174.44
 20
128.6
 30
0.0
 11
174.313637
 21
128.996658
 31
0.0
  0
LINE
  5
517
100
AcDbEntity
  8
1
  6
CONTINUOUS
 62
     4
100
AcDbLine
 10
174.6
 20
122.2
 30
0.0
 11
174.44
 21
122.2
 31
0.0
  0
LINE
  5
518
100
AcDbEntity
  8
1
  6
CONTINUOUS
 62
     4
100
AcDbLine
 10
174.6
 20
120.6
 30
0.0
 11
174.44
 21
120.6
 31
0.0
  0
LINE
  5
519
100
AcDbEntity
  8
1
  6
CONTINUOUS
 62
     4
100
AcDbLine
 10
174.54
 20
122.2
 30
0.0
 11
174.54
 21
120.6
 31
0.0
  0
LINE
  5
51A
100
AcDbEntity
  8
1
  6
CONTINUOUS
 62
     4
100
AcDbLine
 10
174.44
 20
122.2
 30
0.0
 11
174.214154
 21
121.491062
 31
0.0
  0
LINE
  5
51B
100
AcDbEntity
  8
1
  6
CONTINUOUS
 62
     4
100
AcDbLine
 10
174.44
 20
120.6
 30
0.0
 11
174.214154
 21
121.308938
 31
0.0
  0
ARC
  5
51C
100
AcDbEntity
  8
1
  6
CONTINUOUS
 62
     4
100
AcDbCircle
 10
174.5
 20
121.4
 30
0.0
 40
0.3
100
AcDbArc
 50
162.329738
 51
197.670262
  0
LINE
  5
51D
100
AcDbEntity
  8
1
  6
CONTINUOUS
 62
     4
100
AcDbLine
 10
174.6
 20
126.2
 30
0.0
 11
174.44
 21
126.2
 31
0.0
  0
LINE
  5
51E
100
AcDbEntity
  8
1
  6
CONTINUOUS
 62
     4
100
AcDbLine
 10
174.6
 20
124.6
 30
0.0
 11
174.44
 21
124.6
 31
0.0
  0
LINE
  5
51F
100
AcDbEntity
  8
1
  6
CONTINUOUS
 62
     4
100
AcDbLine
 10
174.54
 20
126.2
 30
0.0
 11
174.54
 21
124.6
 31
0.0
  0
LINE
  5
520
100
AcDbEntity
  8
1
  6
CONTINUOUS
 62
     4
100
AcDbLine
 10
174.44
 20
126.2
 30
0.0
 11
174.214154
 21
125.491062
 31
0.0
  0
LINE
  5
521
100
AcDbEntity
  8
1
  6
CONTINUOUS
 62
     4
100
AcDbLine
 10
174.44
 20
124.6
 30
0.0
 11
174.214154
 21
125.308938
 31
0.0
  0
ARC
  5
522
100
AcDbEntity
  8
1
  6
CONTINUOUS
 62
     4
100
AcDbCircle
 10
174.5
 20
125.4
 30
0.0
 40
0.3
100
AcDbArc
 50
162.329738
 51
197.670262
  0
LINE
  5
523
100
AcDbEntity
  8
1
  6
CONTINUOUS
 62
     2
100
AcDbLine
 10
174.6
 20
140.6
 30
0.0
 11
174.6
 21
138.2
 31
0.0
  0
LINE
  5
524
100
AcDbEntity
  8
1
  6
CONTINUOUS
 62
     2
100
AcDbLine
 10
174.6
 20
136.6
 30
0.0
 11
174.6
 21
134.2
 31
0.0
  0
LINE
  5
525
100
AcDbEntity
  8
1
  6
CONTINUOUS
 62
     2
100
AcDbLine
 10
174.6
 20
132.6
 30
0.0
 11
174.6
 21
130.2
 31
0.0
  0
LINE
  5
526
100
AcDbEntity
  8
1
  6
CONTINUOUS
 62
     2
100
AcDbLine
 10
174.6
 20
128.6
 30
0.0
 11
174.6
 21
126.2
 31
0.0
  0
LINE
  5
527
100
AcDbEntity
  8
1
  6
CONTINUOUS
 62
     2
100
AcDbLine
 10
174.6
 20
124.6
 30
0.0
 11
174.6
 21
122.2
 31
0.0
  0
LINE
  5
528
100
AcDbEntity
  8
1
  6
CONTINUOUS
 62
     2
100
AcDbLine
 10
174.6
 20
120.6
 30
0.0
 11
174.6
 21
118.2
 31
0.0
  0
LINE
  5
529
100
AcDbEntity
  8
1
  6
CONTINUOUS
 62
     4
100
AcDbLine
 10
174.54
 20
130.2
 30
0.0
 11
174.54
 21
129.67629
 31
0.0
  0
LINE
  5
52A
100
AcDbEntity
  8
1
  6
CONTINUOUS
 62
     4
100
AcDbLine
 10
174.54
 20
129.07629
 30
0.0
 11
174.54
 21
128.6
 31
0.0
  0
CIRCLE
  5
52B
100
AcDbEntity
  8
1
  6
EXLTYPE2
 62
     6
100
AcDbCircle
 10
33.9
 20
79.4
 30
0.0
 40
1.0
  0
CIRCLE
  5
52C
100
AcDbEntity
  8
1
  6
EXLTYPE2
 62
     6
100
AcDbCircle
 10
36.9
 20
76.2
 30
0.0
 40
1.0
  0
CIRCLE
  5
52D
100
AcDbEntity
  8
1
  6
EXLTYPE2
 62
     6
100
AcDbCircle
 10
36.9
 20
82.6
 30
0.0
 40
1.0
  0
CIRCLE
  5
52E
100
AcDbEntity
  8
1
  6
EXLTYPE2
 62
     6
100
AcDbCircle
 10
133.9
 20
82.4
 30
0.0
 40
1.0
  0
CIRCLE
  5
52F
100
AcDbEntity
  8
1
  6
EXLTYPE2
 62
     6
100
AcDbCircle
 10
136.9
 20
79.4
 30
0.0
 40
1.0
  0
CIRCLE
  5
530
100
AcDbEntity
  8
1
  6
EXLTYPE2
 62
     6
100
AcDbCircle
 10
133.7
 20
179.4
 30
0.0
 40
1.0
  0
CIRCLE
  5
531
100
AcDbEntity
  8
1
  6
EXLTYPE2
 62
     6
100
AcDbCircle
 10
136.9
 20
182.4
 30
0.0
 40
1.0
  0
CIRCLE
  5
532
100
AcDbEntity
  8
1
  6
EXLTYPE2
 62
     6
100
AcDbCircle
 10
140.1
 20
179.4
 30
0.0
 40
1.0
  0
CIRCLE
  5
533
100
AcDbEntity
  8
1
  6
EXLTYPE2
 62
     6
100
AcDbCircle
 10
136.9
 20
215.0
 30
0.0
 40
3.0
  0
CIRCLE
  5
534
100
AcDbEntity
  8
1
  6
EXLTYPE2
 62
     6
100
AcDbCircle
 10
171.6
 20
79.4
 30
0.0
 40
3.0
  0
LINE
  5
535
100
AcDbEntity
  8
1
  6
CONTINUOUS
 62
     6
100
AcDbLine
 10
192.3
 20
76.2
 30
0.0
 11
191.313333
 21
76.6
 31
0.0
  0
LINE
  5
536
100
AcDbEntity
  8
1
  6
CONTINUOUS
 62
     6
100
AcDbLine
 10
192.3
 20
76.2
 30
0.0
 11
191.313333
 21
75.8
 31
0.0
  0
LINE
  5
537
100
AcDbEntity
  8
1
  6
CONTINUOUS
 62
     6
100
AcDbLine
 10
191.977213
 20
76.43086
 30
0.0
 11
192.056807
 21
76.001408
 31
0.0
  0
LINE
  5
538
100
AcDbEntity
  8
1
  6
CONTINUOUS
 62
     6
100
AcDbLine
 10
191.313333
 20
76.6
 30
0.0
 11
182.9
 21
76.6
 31
0.0
  0
LINE
  5
539
100
AcDbEntity
  8
1
  6
CONTINUOUS
 62
     6
100
AcDbLine
 10
191.313333
 20
75.8
 30
0.0
 11
182.9
 21
75.8
 31
0.0
  0
LINE
  5
53A
100
AcDbEntity
  8
1
  6
CONTINUOUS
 62
     6
100
AcDbLine
 10
191.535766
 20
76.61773
 30
0.0
 11
191.679788
 21
75.840658
 31
0.0
  0
LINE
  5
53B
100
AcDbEntity
  8
1
  6
CONTINUOUS
 62
     6
100
AcDbLine
 10
191.113706
 20
76.7
 30
0.0
 11
191.299045
 21
75.7
 31
0.0
  0
LINE
  5
53C
100
AcDbEntity
  8
1
  6
CONTINUOUS
 62
     6
100
AcDbLine
 10
190.706894
 20
76.7
 30
0.0
 11
190.892233
 21
75.7
 31
0.0
  0
LINE
  5
53D
100
AcDbEntity
  8
1
  6
CONTINUOUS
 62
     6
100
AcDbLine
 10
190.300082
 20
76.7
 30
0.0
 11
190.483599
 21
75.709831
 31
0.0
  0
LINE
  5
53E
100
AcDbEntity
  8
1
  6
CONTINUOUS
 62
     6
100
AcDbLine
 10
189.89327
 20
76.7
 30
0.0
 11
190.078609
 21
75.7
 31
0.0
  0
LINE
  5
53F
100
AcDbEntity
  8
1
  6
CONTINUOUS
 62
     6
100
AcDbLine
 10
189.486458
 20
76.7
 30
0.0
 11
189.671797
 21
75.7
 31
0.0
  0
LINE
  5
540
100
AcDbEntity
  8
1
  6
CONTINUOUS
 62
     6
100
AcDbLine
 10
189.079646
 20
76.7
 30
0.0
 11
189.264985
 21
75.7
 31
0.0
  0
LINE
  5
541
100
AcDbEntity
  8
1
  6
CONTINUOUS
 62
     6
100
AcDbLine
 10
188.672834
 20
76.7
 30
0.0
 11
188.858173
 21
75.7
 31
0.0
  0
LINE
  5
542
100
AcDbEntity
  8
1
  6
CONTINUOUS
 62
     6
100
AcDbLine
 10
188.266022
 20
76.7
 30
0.0
 11
188.451361
 21
75.7
 31
0.0
  0
LINE
  5
543
100
AcDbEntity
  8
1
  6
CONTINUOUS
 62
     6
100
AcDbLine
 10
187.859209
 20
76.7
 30
0.0
 11
188.044548
 21
75.7
 31
0.0
  0
LINE
  5
544
100
AcDbEntity
  8
1
  6
CONTINUOUS
 62
     6
100
AcDbLine
 10
187.452397
 20
76.7
 30
0.0
 11
187.637736
 21
75.7
 31
0.0
  0
LINE
  5
545
100
AcDbEntity
  8
1
  6
CONTINUOUS
 62
     6
100
AcDbLine
 10
187.045585
 20
76.7
 30
0.0
 11
187.230924
 21
75.7
 31
0.0
  0
LINE
  5
546
100
AcDbEntity
  8
1
  6
CONTINUOUS
 62
     6
100
AcDbLine
 10
186.638773
 20
76.7
 30
0.0
 11
186.824112
 21
75.7
 31
0.0
  0
LINE
  5
547
100
AcDbEntity
  8
1
  6
CONTINUOUS
 62
     6
100
AcDbLine
 10
186.231961
 20
76.7
 30
0.0
 11
186.4173
 21
75.7
 31
0.0
  0
LINE
  5
548
100
AcDbEntity
  8
1
  6
CONTINUOUS
 62
     6
100
AcDbLine
 10
185.825149
 20
76.7
 30
0.0
 11
186.010488
 21
75.7
 31
0.0
  0
LINE
  5
549
100
AcDbEntity
  8
1
  6
CONTINUOUS
 62
     6
100
AcDbLine
 10
185.418337
 20
76.7
 30
0.0
 11
185.603676
 21
75.7
 31
0.0
  0
LINE
  5
54A
100
AcDbEntity
  8
1
  6
CONTINUOUS
 62
     6
100
AcDbLine
 10
185.011525
 20
76.7
 30
0.0
 11
185.196864
 21
75.7
 31
0.0
  0
LINE
  5
54B
100
AcDbEntity
  8
1
  6
CONTINUOUS
 62
     6
100
AcDbLine
 10
184.604713
 20
76.7
 30
0.0
 11
184.790052
 21
75.7
 31
0.0
  0
LINE
  5
54C
100
AcDbEntity
  8
1
  6
CONTINUOUS
 62
     6
100
AcDbLine
 10
184.1979
 20
76.7
 30
0.0
 11
184.38324
 21
75.7
 31
0.0
  0
LINE
  5
54D
100
AcDbEntity
  8
1
  6
CONTINUOUS
 62
     6
100
AcDbLine
 10
183.791088
 20
76.7
 30
0.0
 11
183.976427
 21
75.7
 31
0.0
  0
LINE
  5
54E
100
AcDbEntity
  8
1
  6
CONTINUOUS
 62
     6
100
AcDbLine
 10
183.384276
 20
76.7
 30
0.0
 11
183.569615
 21
75.7
 31
0.0
  0
LINE
  5
54F
100
AcDbEntity
  8
1
  6
CONTINUOUS
 62
     6
100
AcDbLine
 10
182.977464
 20
76.7
 30
0.0
 11
183.162803
 21
75.7
 31
0.0
  0
LINE
  5
550
100
AcDbEntity
  8
2
  6
CONTINUOUS
 62
     3
100
AcDbLine
 10
128.5
 20
226.3
 30
0.0
 11
111.0
 21
226.3
 31
0.0
  0
LINE
  5
551
100
AcDbEntity
  8
2
  6
CONTINUOUS
 62
     3
100
AcDbLine
 10
131.9
 20
184.4
 30
0.0
 11
123.6
 21
184.4
 31
0.0
  0
LINE
  5
552
100
AcDbEntity
  8
2
  6
CONTINUOUS
 62
     3
100
AcDbLine
 10
131.1
 20
174.4
 30
0.0
 11
123.6
 21
174.4
 31
0.0
  0
LINE
  5
553
100
AcDbEntity
  8
2
  6
CONTINUOUS
 62
     3
100
AcDbLine
 10
133.7
 20
181.4
 30
0.0
 11
133.7
 21
193.9
 31
0.0
  0
LINE
  5
554
100
AcDbEntity
  8
2
  6
CONTINUOUS
 62
     3
100
AcDbLine
 10
140.1
 20
181.4
 30
0.0
 11
140.1
 21
193.9
 31
0.0
  0
LINE
  5
555
100
AcDbEntity
  8
2
  6
CONTINUOUS
 62
     3
100
AcDbLine
 10
131.4
 20
183.9
 30
0.0
 11
131.4
 21
199.9
 31
0.0
  0
LINE
  5
556
100
AcDbEntity
  8
2
  6
CONTINUOUS
 62
     3
100
AcDbLine
 10
142.4
 20
183.9
 30
0.0
 11
142.4
 21
199.9
 31
0.0
  0
LINE
  5
557
100
AcDbEntity
  8
2
  6
CONTINUOUS
 62
     3
100
AcDbLine
 10
136.9
 20
185.9
 30
0.0
 11
136.9
 21
193.9
 31
0.0
  0
LINE
  5
558
100
AcDbEntity
  8
2
  6
CONTINUOUS
 62
     3
100
AcDbLine
 10
138.9
 20
182.4
 30
0.0
 11
158.8
 21
182.4
 31
0.0
  0
LINE
  5
559
100
AcDbEntity
  8
2
  6
CONTINUOUS
 62
     3
100
AcDbLine
 10
143.9
 20
179.4
 30
0.0
 11
158.8
 21
179.4
 31
0.0
  0
LINE
  5
55A
100
AcDbEntity
  8
2
  6
CONTINUOUS
 62
     3
100
AcDbLine
 10
182.9
 20
173.7
 30
0.0
 11
182.9
 21
157.3
 31
0.0
  0
LINE
  5
55B
100
AcDbEntity
  8
2
  6
CONTINUOUS
 62
     3
100
AcDbLine
 10
135.9
 20
82.4
 30
0.0
 11
152.8
 21
82.4
 31
0.0
  0
LINE
  5
55C
100
AcDbEntity
  8
2
  6
CONTINUOUS
 62
     3
100
AcDbLine
 10
140.872685
 20
79.4
 30
0.0
 11
158.8
 21
79.4
 31
0.0
  0
LINE
  5
55D
100
AcDbEntity
  8
2
  6
CONTINUOUS
 62
     3
100
AcDbLine
 10
136.9
 20
75.427315
 30
0.0
 11
136.9
 21
57.5
 31
0.0
  0
LINE
  5
55E
100
AcDbEntity
  8
2
  6
CONTINUOUS
 62
     3
100
AcDbLine
 10
133.9
 20
80.4
 30
0.0
 11
133.9
 21
63.5
 31
0.0
  0
LINE
  5
55F
100
AcDbEntity
  8
2
  6
CONTINUOUS
 62
     3
100
AcDbLine
 10
36.9
 20
72.4
 30
0.0
 11
36.9
 21
57.5
 31
0.0
  0
LINE
  5
560
100
AcDbEntity
  8
2
  6
CONTINUOUS
 62
     3
100
AcDbLine
 10
33.9
 20
77.4
 30
0.0
 11
33.9
 21
57.5
 31
0.0
  0
LINE
  5
561
100
AcDbEntity
  8
2
  6
CONTINUOUS
 62
     3
100
AcDbLine
 10
182.9
 20
73.5
 30
0.0
 11
182.9
 21
63.5
 31
0.0
  0
LINE
  5
562
100
AcDbEntity
  8
2
  6
CONTINUOUS
 62
     3
100
AcDbLine
 10
167.84
 20
77.9
 30
0.0
 11
167.84
 21
63.5
 31
0.0
  0
LINE
  5
563
100
AcDbEntity
  8
2
  6
CONTINUOUS
 62
     3
100
AcDbLine
 10
182.9
 20
185.1
 30
0.0
 11
182.9
 21
193.9
 31
0.0
  0
LINE
  5
564
100
AcDbEntity
  8
2
  6
CONTINUOUS
 62
     3
100
AcDbLine
 10
167.84
 20
183.9
 30
0.0
 11
167.84
 21
193.9
 31
0.0
  0
LINE
  5
565
100
AcDbEntity
  8
2
  6
CONTINUOUS
 62
     3
100
AcDbLine
 10
41.9
 20
85.2
 30
0.0
 11
41.9
 21
92.3
 31
0.0
  0
LINE
  5
566
100
AcDbEntity
  8
2
  6
CONTINUOUS
 62
     3
100
AcDbLine
 10
31.9
 20
84.4
 30
0.0
 11
31.9
 21
92.3
 31
0.0
  0
LINE
  5
567
100
AcDbEntity
  8
2
  6
CONTINUOUS
 62
     3
100
AcDbLine
 10
32.4
 20
84.9
 30
0.0
 11
25.6
 21
84.9
 31
0.0
  0
LINE
  5
568
100
AcDbEntity
  8
2
  6
CONTINUOUS
 62
     3
100
AcDbLine
 10
32.4
 20
73.9
 30
0.0
 11
25.6
 21
73.9
 31
0.0
  0
TEXT
  5
569
100
AcDbEntity
  8
2
  6
CONTINUOUS
 62
     2
100
AcDbText
 10
132.8
 20
198.25
 30
0.0
 40
4.0
  1
^J５５
 41
0.610444
  7
EXCADSTD
 72
     5
 11
141.0
 21
198.25
 31
0.0
100
AcDbText
  0
TEXT
  5
56A
100
AcDbEntity
  8
2
  6
CONTINUOUS
 62
     2
100
AcDbText
 10
140.6
 20
198.25
 30
0.0
 40
4.0
  1
^J
 41
0.0
  7
EXCADSTD
 72
     5
 11
140.6
 21
198.25
 31
0.0
100
AcDbText
  0
LINE
  5
56B
100
AcDbEntity
  8
2
  6
CONTINUOUS
 62
     3
100
AcDbLine
 10
131.4
 20
197.9
 30
0.0
 11
142.4
 21
197.9
 31
0.0
  0
LINE
  5
56C
100
AcDbEntity
  8
2
  6
CONTINUOUS
 62
     3
100
AcDbLine
 10
134.9
 20
198.483333
 30
0.0
 11
131.4
 21
197.9
 31
0.0
  0
LINE
  5
56D
100
AcDbEntity
  8
2
  6
CONTINUOUS
 62
     3
100
AcDbLine
 10
131.4
 20
197.9
 30
0.0
 11
134.9
 21
197.316667
 31
0.0
  0
LINE
  5
56E
100
AcDbEntity
  8
2
  6
CONTINUOUS
 62
     3
100
AcDbLine
 10
138.9
 20
197.316667
 30
0.0
 11
142.4
 21
197.9
 31
0.0
  0
LINE
  5
56F
100
AcDbEntity
  8
2
  6
CONTINUOUS
 62
     3
100
AcDbLine
 10
142.4
 20
197.9
 30
0.0
 11
138.9
 21
198.483333
 31
0.0
  0
TEXT
  5
570
100
AcDbEntity
  8
2
  6
CONTINUOUS
 62
     2
100
AcDbText
 10
125.25
 20
175.3
 30
0.0
 40
4.0
  1
^J５０
 50
90.0
 41
0.610444
  7
EXCADSTD
 72
     5
 11
125.25
 21
183.5
 31
0.0
100
AcDbText
  0
TEXT
  5
571
100
AcDbEntity
  8
2
  6
CONTINUOUS
 62
     2
100
AcDbText
 10
125.25
 20
183.1
 30
0.0
 40
4.0
  1
^J
 50
90.0
 41
0.0
  7
EXCADSTD
 72
     5
 11
125.25
 21
183.1
 31
0.0
100
AcDbText
  0
LINE
  5
572
100
AcDbEntity
  8
2
  6
CONTINUOUS
 62
     3
100
AcDbLine
 10
125.6
 20
174.4
 30
0.0
 11
125.6
 21
184.4
 31
0.0
  0
LINE
  5
573
100
AcDbEntity
  8
2
  6
CONTINUOUS
 62
     3
100
AcDbLine
 10
125.016667
 20
177.9
 30
0.0
 11
125.6
 21
174.4
 31
0.0
  0
LINE
  5
574
100
AcDbEntity
  8
2
  6
CONTINUOUS
 62
     3
100
AcDbLine
 10
125.6
 20
174.4
 30
0.0
 11
126.183333
 21
177.9
 31
0.0
  0
LINE
  5
575
100
AcDbEntity
  8
2
  6
CONTINUOUS
 62
     3
100
AcDbLine
 10
126.183333
 20
180.9
 30
0.0
 11
125.6
 21
184.4
 31
0.0
  0
LINE
  5
576
100
AcDbEntity
  8
2
  6
CONTINUOUS
 62
     3
100
AcDbLine
 10
125.6
 20
184.4
 30
0.0
 11
125.016667
 21
180.9
 31
0.0
  0
TEXT
  5
577
100
AcDbEntity
  8
2
  6
CONTINUOUS
 62
     2
100
AcDbText
 10
169.17
 20
192.25
 30
0.0
 40
4.0
  1
^J７５．３
 41
0.54064
  7
EXCADSTD
 72
     5
 11
181.57
 21
192.25
 31
0.0
100
AcDbText
  0
TEXT
  5
578
100
AcDbEntity
  8
2
  6
CONTINUOUS
 62
     2
100
AcDbText
 10
180.97
 20
192.25
 30
0.0
 40
4.0
  1
^J
 41
0.0
  7
EXCADSTD
 72
     5
 11
180.97
 21
192.25
 31
0.0
100
AcDbText
  0
LINE
  5
579
100
AcDbEntity
  8
2
  6
CONTINUOUS
 62
     3
100
AcDbLine
 10
167.84
 20
191.9
 30
0.0
 11
182.9
 21
191.9
 31
0.0
  0
LINE
  5
57A
100
AcDbEntity
  8
2
  6
CONTINUOUS
 62
     3
100
AcDbLine
 10
171.34
 20
192.483333
 30
0.0
 11
167.84
 21
191.9
 31
0.0
  0
LINE
  5
57B
100
AcDbEntity
  8
2
  6
CONTINUOUS
 62
     3
100
AcDbLine
 10
167.84
 20
191.9
 30
0.0
 11
171.34
 21
191.316667
 31
0.0
  0
LINE
  5
57C
100
AcDbEntity
  8
2
  6
CONTINUOUS
 62
     3
100
AcDbLine
 10
179.4
 20
191.316667
 30
0.0
 11
182.9
 21
191.9
 31
0.0
  0
LINE
  5
57D
100
AcDbEntity
  8
2
  6
CONTINUOUS
 62
     3
100
AcDbLine
 10
182.9
 20
191.9
 30
0.0
 11
179.4
 21
192.483333
 31
0.0
  0
TEXT
  5
57E
100
AcDbEntity
  8
2
  6
CONTINUOUS
 62
     2
100
AcDbText
 10
169.17
 20
65.85
 30
0.0
 40
4.0
  1
^J７５．３
 41
0.54064
  7
EXCADSTD
 72
     5
 11
181.57
 21
65.85
 31
0.0
100
AcDbText
  0
TEXT
  5
57F
100
AcDbEntity
  8
2
  6
CONTINUOUS
 62
     2
100
AcDbText
 10
180.97
 20
65.85
 30
0.0
 40
4.0
  1
^J
 41
0.0
  7
EXCADSTD
 72
     5
 11
180.97
 21
65.85
 31
0.0
100
AcDbText
  0
LINE
  5
580
100
AcDbEntity
  8
2
  6
CONTINUOUS
 62
     3
100
AcDbLine
 10
167.84
 20
65.5
 30
0.0
 11
182.9
 21
65.5
 31
0.0
  0
LINE
  5
581
100
AcDbEntity
  8
2
  6
CONTINUOUS
 62
     3
100
AcDbLine
 10
171.34
 20
66.083333
 30
0.0
 11
167.84
 21
65.5
 31
0.0
  0
LINE
  5
582
100
AcDbEntity
  8
2
  6
CONTINUOUS
 62
     3
100
AcDbLine
 10
167.84
 20
65.5
 30
0.0
 11
171.34
 21
64.916667
 31
0.0
  0
LINE
  5
583
100
AcDbEntity
  8
2
  6
CONTINUOUS
 62
     3
100
AcDbLine
 10
179.4
 20
64.916667
 30
0.0
 11
182.9
 21
65.5
 31
0.0
  0
LINE
  5
584
100
AcDbEntity
  8
2
  6
CONTINUOUS
 62
     3
100
AcDbLine
 10
182.9
 20
65.5
 30
0.0
 11
179.4
 21
66.083333
 31
0.0
  0
TEXT
  5
585
100
AcDbEntity
  8
2
  6
CONTINUOUS
 62
     2
100
AcDbText
 10
156.45
 20
123.45
 30
0.0
 40
4.0
  1
^J５００
 50
90.0
 41
0.6545
  7
EXCADSTD
 72
     5
 11
156.45
 21
135.35
 31
0.0
100
AcDbText
  0
TEXT
  5
586
100
AcDbEntity
  8
2
  6
CONTINUOUS
 62
     2
100
AcDbText
 10
156.45
 20
134.95
 30
0.0
 40
4.0
  1
^J
 50
90.0
 41
0.0
  7
EXCADSTD
 72
     5
 11
156.45
 21
134.95
 31
0.0
100
AcDbText
  0
TEXT
  5
587
100
AcDbEntity
  8
2
  6
CONTINUOUS
 62
     2
100
AcDbText
 10
32.8
 20
90.65
 30
0.0
 40
4.0
  1
^J５０
 41
0.610444
  7
EXCADSTD
 72
     5
 11
41.0
 21
90.65
 31
0.0
100
AcDbText
  0
TEXT
  5
588
100
AcDbEntity
  8
2
  6
CONTINUOUS
 62
     2
100
AcDbText
 10
40.6
 20
90.65
 30
0.0
 40
4.0
  1
^J
 41
0.0
  7
EXCADSTD
 72
     5
 11
40.6
 21
90.65
 31
0.0
100
AcDbText
  0
LINE
  5
589
100
AcDbEntity
  8
2
  6
CONTINUOUS
 62
     3
100
AcDbLine
 10
31.9
 20
90.3
 30
0.0
 11
41.9
 21
90.3
 31
0.0
  0
LINE
  5
58A
100
AcDbEntity
  8
2
  6
CONTINUOUS
 62
     3
100
AcDbLine
 10
35.4
 20
90.883333
 30
0.0
 11
31.9
 21
90.3
 31
0.0
  0
LINE
  5
58B
100
AcDbEntity
  8
2
  6
CONTINUOUS
 62
     3
100
AcDbLine
 10
31.9
 20
90.3
 30
0.0
 11
35.4
 21
89.716667
 31
0.0
  0
LINE
  5
58C
100
AcDbEntity
  8
2
  6
CONTINUOUS
 62
     3
100
AcDbLine
 10
38.4
 20
89.716667
 30
0.0
 11
41.9
 21
90.3
 31
0.0
  0
LINE
  5
58D
100
AcDbEntity
  8
2
  6
CONTINUOUS
 62
     3
100
AcDbLine
 10
41.9
 20
90.3
 30
0.0
 11
38.4
 21
90.883333
 31
0.0
  0
TEXT
  5
58E
100
AcDbEntity
  8
2
  6
CONTINUOUS
 62
     2
100
AcDbText
 10
27.25
 20
75.3
 30
0.0
 40
4.0
  1
^J５５
 50
90.0
 41
0.610444
  7
EXCADSTD
 72
     5
 11
27.25
 21
83.5
 31
0.0
100
AcDbText
  0
TEXT
  5
58F
100
AcDbEntity
  8
2
  6
CONTINUOUS
 62
     2
100
AcDbText
 10
27.25
 20
83.1
 30
0.0
 40
4.0
  1
^J
 50
90.0
 41
0.0
  7
EXCADSTD
 72
     5
 11
27.25
 21
83.1
 31
0.0
100
AcDbText
  0
LINE
  5
590
100
AcDbEntity
  8
2
  6
CONTINUOUS
 62
     3
100
AcDbLine
 10
27.6
 20
73.9
 30
0.0
 11
27.6
 21
84.9
 31
0.0
  0
LINE
  5
591
100
AcDbEntity
  8
2
  6
CONTINUOUS
 62
     3
100
AcDbLine
 10
27.016667
 20
77.4
 30
0.0
 11
27.6
 21
73.9
 31
0.0
  0
LINE
  5
592
100
AcDbEntity
  8
2
  6
CONTINUOUS
 62
     3
100
AcDbLine
 10
27.6
 20
73.9
 30
0.0
 11
28.183333
 21
77.4
 31
0.0
  0
LINE
  5
593
100
AcDbEntity
  8
2
  6
CONTINUOUS
 62
     3
100
AcDbLine
 10
28.183333
 20
81.4
 30
0.0
 11
27.6
 21
84.9
 31
0.0
  0
LINE
  5
594
100
AcDbEntity
  8
2
  6
CONTINUOUS
 62
     3
100
AcDbLine
 10
27.6
 20
84.9
 30
0.0
 11
27.016667
 21
81.4
 31
0.0
  0
TEXT
  5
595
100
AcDbEntity
  8
2
  6
CONTINUOUS
 62
     2
100
AcDbText
 10
80.95
 20
59.85
 30
0.0
 40
4.0
  1
^J５００
 41
0.6545
  7
EXCADSTD
 72
     5
 11
92.85
 21
59.85
 31
0.0
100
AcDbText
  0
TEXT
  5
596
100
AcDbEntity
  8
2
  6
CONTINUOUS
 62
     2
100
AcDbText
 10
92.45
 20
59.85
 30
0.0
 40
4.0
  1
^J
 41
0.0
  7
EXCADSTD
 72
     5
 11
92.45
 21
59.85
 31
0.0
100
AcDbText
  0
TEXT
  5
597
100
AcDbEntity
  8
2
  6
CONTINUOUS
 62
     2
100
AcDbText
 10
112.65
 20
229.25
 30
0.0
 40
4.0
  1
^J５６．５
 50
90.0
 41
0.54064
  7
EXCADSTD
 72
     5
 11
112.65
 21
241.65
 31
0.0
100
AcDbText
  0
TEXT
  5
598
100
AcDbEntity
  8
2
  6
CONTINUOUS
 62
     2
100
AcDbText
 10
112.65
 20
241.05
 30
0.0
 40
4.0
  1
^J
 50
90.0
 41
0.0
  7
EXCADSTD
 72
     5
 11
112.65
 21
241.05
 31
0.0
100
AcDbText
  0
LINE
  5
599
100
AcDbEntity
  8
2
  6
CONTINUOUS
 62
     3
100
AcDbLine
 10
113.0
 20
211.0
 30
0.0
 11
113.0
 21
240.6
 31
0.0
  0
LINE
  5
59A
100
AcDbEntity
  8
2
  6
CONTINUOUS
 62
     3
100
AcDbLine
 10
113.583333
 20
211.5
 30
0.0
 11
113.0
 21
215.0
 31
0.0
  0
LINE
  5
59B
100
AcDbEntity
  8
2
  6
CONTINUOUS
 62
     3
100
AcDbLine
 10
113.0
 20
215.0
 30
0.0
 11
112.416667
 21
211.5
 31
0.0
  0
LINE
  5
59C
100
AcDbEntity
  8
2
  6
CONTINUOUS
 62
     3
100
AcDbLine
 10
112.416667
 20
229.8
 30
0.0
 11
113.0
 21
226.3
 31
0.0
  0
LINE
  5
59D
100
AcDbEntity
  8
2
  6
CONTINUOUS
 62
     3
100
AcDbLine
 10
113.0
 20
226.3
 30
0.0
 11
113.583333
 21
229.8
 31
0.0
  0
TEXT
  5
59E
100
AcDbEntity
  8
2
  6
CONTINUOUS
 62
     2
100
AcDbText
 10
185.66
 20
159.65
 30
0.0
 40
4.0
  1
^J５６．５
 41
0.54064
  7
EXCADSTD
 72
     5
 11
198.06
 21
159.65
 31
0.0
100
AcDbText
  0
TEXT
  5
59F
100
AcDbEntity
  8
2
  6
CONTINUOUS
 62
     2
100
AcDbText
 10
197.46
 20
159.65
 30
0.0
 40
4.0
  1
^J
 41
0.0
  7
EXCADSTD
 72
     5
 11
197.46
 21
159.65
 31
0.0
100
AcDbText
  0
LINE
  5
5A0
100
AcDbEntity
  8
2
  6
CONTINUOUS
 62
     3
100
AcDbLine
 10
167.6
 20
159.3
 30
0.0
 11
196.99
 21
159.3
 31
0.0
  0
LINE
  5
5A1
100
AcDbEntity
  8
2
  6
CONTINUOUS
 62
     3
100
AcDbLine
 10
168.1
 20
158.716667
 30
0.0
 11
171.6
 21
159.3
 31
0.0
  0
LINE
  5
5A2
100
AcDbEntity
  8
2
  6
CONTINUOUS
 62
     3
100
AcDbLine
 10
171.6
 20
159.3
 30
0.0
 11
168.1
 21
159.883333
 31
0.0
  0
LINE
  5
5A3
100
AcDbEntity
  8
2
  6
CONTINUOUS
 62
     3
100
AcDbLine
 10
186.4
 20
159.883333
 30
0.0
 11
182.9
 21
159.3
 31
0.0
  0
LINE
  5
5A4
100
AcDbEntity
  8
2
  6
CONTINUOUS
 62
     3
100
AcDbLine
 10
182.9
 20
159.3
 30
0.0
 11
186.4
 21
158.716667
 31
0.0
  0
TEXT
  5
5A5
100
AcDbEntity
  8
2
  6
CONTINUOUS
 62
     2
100
AcDbText
 10
123.2
 20
192.25
 30
0.0
 40
4.0
  1
^J１６
 41
0.610444
  7
EXCADSTD
 72
     5
 11
131.4
 21
192.25
 31
0.0
100
AcDbText
  0
TEXT
  5
5A6
100
AcDbEntity
  8
2
  6
CONTINUOUS
 62
     2
100
AcDbText
 10
131.0
 20
192.25
 30
0.0
 40
4.0
  1
^J
 41
0.0
  7
EXCADSTD
 72
     5
 11
131.0
 21
192.25
 31
0.0
100
AcDbText
  0
TEXT
  5
5A7
100
AcDbEntity
  8
2
  6
CONTINUOUS
 62
     2
100
AcDbText
 10
150.45
 20
85.7
 30
0.0
 40
4.0
  1
^J１５
 50
90.0
 41
0.610444
  7
EXCADSTD
 72
     5
 11
150.45
 21
93.9
 31
0.0
100
AcDbText
  0
TEXT
  5
5A8
100
AcDbEntity
  8
2
  6
CONTINUOUS
 62
     2
100
AcDbText
 10
150.45
 20
93.5
 30
0.0
 40
4.0
  1
^J
 50
90.0
 41
0.0
  7
EXCADSTD
 72
     5
 11
150.45
 21
93.5
 31
0.0
100
AcDbText
  0
LINE
  5
5A9
100
AcDbEntity
  8
2
  6
CONTINUOUS
 62
     3
100
AcDbLine
 10
150.8
 20
75.4
 30
0.0
 11
150.8
 21
92.9
 31
0.0
  0
LINE
  5
5AA
100
AcDbEntity
  8
2
  6
CONTINUOUS
 62
     3
100
AcDbLine
 10
151.383333
 20
75.9
 30
0.0
 11
150.8
 21
79.4
 31
0.0
  0
LINE
  5
5AB
100
AcDbEntity
  8
2
  6
CONTINUOUS
 62
     3
100
AcDbLine
 10
150.8
 20
79.4
 30
0.0
 11
150.216667
 21
75.9
 31
0.0
  0
LINE
  5
5AC
100
AcDbEntity
  8
2
  6
CONTINUOUS
 62
     3
100
AcDbLine
 10
150.216667
 20
85.9
 30
0.0
 11
150.8
 21
82.4
 31
0.0
  0
LINE
  5
5AD
100
AcDbEntity
  8
2
  6
CONTINUOUS
 62
     3
100
AcDbLine
 10
150.8
 20
82.4
 30
0.0
 11
151.383333
 21
85.9
 31
0.0
  0
TEXT
  5
5AE
100
AcDbEntity
  8
2
  6
CONTINUOUS
 62
     2
100
AcDbText
 10
123.1
 20
65.85
 30
0.0
 40
4.0
  1
^J１５
 41
0.610444
  7
EXCADSTD
 72
     5
 11
131.3
 21
65.85
 31
0.0
100
AcDbText
  0
TEXT
  5
5AF
100
AcDbEntity
  8
2
  6
CONTINUOUS
 62
     2
100
AcDbText
 10
130.9
 20
65.85
 30
0.0
 40
4.0
  1
^J
 41
0.0
  7
EXCADSTD
 72
     5
 11
130.9
 21
65.85
 31
0.0
100
AcDbText
  0
LINE
  5
5B0
100
AcDbEntity
  8
2
  6
CONTINUOUS
 62
     3
100
AcDbLine
 10
123.6
 20
65.5
 30
0.0
 11
140.9
 21
65.5
 31
0.0
  0
LINE
  5
5B1
100
AcDbEntity
  8
2
  6
CONTINUOUS
 62
     3
100
AcDbLine
 10
130.4
 20
64.916667
 30
0.0
 11
133.9
 21
65.5
 31
0.0
  0
LINE
  5
5B2
100
AcDbEntity
  8
2
  6
CONTINUOUS
 62
     3
100
AcDbLine
 10
133.9
 20
65.5
 30
0.0
 11
130.4
 21
66.083333
 31
0.0
  0
LINE
  5
5B3
100
AcDbEntity
  8
2
  6
CONTINUOUS
 62
     3
100
AcDbLine
 10
140.4
 20
66.083333
 30
0.0
 11
136.9
 21
65.5
 31
0.0
  0
LINE
  5
5B4
100
AcDbEntity
  8
2
  6
CONTINUOUS
 62
     3
100
AcDbLine
 10
136.9
 20
65.5
 30
0.0
 11
140.4
 21
64.916667
 31
0.0
  0
TEXT
  5
5B5
100
AcDbEntity
  8
2
  6
CONTINUOUS
 62
     2
100
AcDbText
 10
119.55
 20
114.05
 30
0.0
 40
4.0
  1
φ
 41
0.945
  7
EXCADSTD
 72
     5
 11
123.15
 21
114.05
 31
0.0
100
AcDbText
  0
TEXT
  5
5B6
100
AcDbEntity
  8
2
  6
CONTINUOUS
 62
     2
100
AcDbText
 10
123.65
 20
114.05
 30
0.0
 40
4.0
  1
^J３０
 41
0.610444
  7
EXCADSTD
 72
     5
 11
131.85
 21
114.05
 31
0.0
100
AcDbText
  0
TEXT
  5
5B7
100
AcDbEntity
  8
2
  6
CONTINUOUS
 62
     2
100
AcDbText
 10
131.45
 20
114.05
 30
0.0
 40
4.0
  1
^J
 41
0.0
  7
EXCADSTD
 72
     5
 11
131.45
 21
114.05
 31
0.0
100
AcDbText
  0
LINE
  5
5B8
100
AcDbEntity
  8
2
  6
CONTINUOUS
 62
     3
100
AcDbLine
 10
119.4
 20
113.7
 30
0.0
 11
143.9
 21
113.7
 31
0.0
  0
LINE
  5
5B9
100
AcDbEntity
  8
2
  6
CONTINUOUS
 62
     3
100
AcDbLine
 10
130.4
 20
113.116667
 30
0.0
 11
133.9
 21
113.7
 31
0.0
  0
LINE
  5
5BA
100
AcDbEntity
  8
2
  6
CONTINUOUS
 62
     3
100
AcDbLine
 10
133.9
 20
113.7
 30
0.0
 11
130.4
 21
114.283333
 31
0.0
  0
LINE
  5
5BB
100
AcDbEntity
  8
2
  6
CONTINUOUS
 62
     3
100
AcDbLine
 10
143.4
 20
114.283333
 30
0.0
 11
139.9
 21
113.7
 31
0.0
  0
LINE
  5
5BC
100
AcDbEntity
  8
2
  6
CONTINUOUS
 62
     3
100
AcDbLine
 10
139.9
 20
113.7
 30
0.0
 11
143.4
 21
113.116667
 31
0.0
  0
LINE
  5
5BD
100
AcDbEntity
  8
2
  6
CONTINUOUS
 62
     3
100
AcDbLine
 10
123.9
 20
191.9
 30
0.0
 11
150.6
 21
191.9
 31
0.0
  0
LINE
  5
5BE
100
AcDbEntity
  8
2
  6
CONTINUOUS
 62
     3
100
AcDbLine
 10
133.7
 20
191.9
 30
0.0
 11
130.31926
 21
190.994133
 31
0.0
  0
LINE
  5
5BF
100
AcDbEntity
  8
2
  6
CONTINUOUS
 62
     3
100
AcDbLine
 10
133.7
 20
191.9
 30
0.0
 11
130.31926
 21
192.805867
 31
0.0
  0
LINE
  5
5C0
100
AcDbEntity
  8
2
  6
CONTINUOUS
 62
     3
100
AcDbLine
 10
140.1
 20
191.9
 30
0.0
 11
143.48074
 21
192.805867
 31
0.0
  0
LINE
  5
5C1
100
AcDbEntity
  8
2
  6
CONTINUOUS
 62
     3
100
AcDbLine
 10
140.1
 20
191.9
 30
0.0
 11
143.48074
 21
190.994133
 31
0.0
  0
TEXT
  5
5C2
100
AcDbEntity
  8
2
  6
CONTINUOUS
 62
     2
100
AcDbText
 10
143.0
 20
192.25
 30
0.0
 40
4.0
  1
^J１６
 41
0.610444
  7
EXCADSTD
 72
     5
 11
151.2
 21
192.25
 31
0.0
100
AcDbText
  0
TEXT
  5
5C3
100
AcDbEntity
  8
2
  6
CONTINUOUS
 62
     2
100
AcDbText
 10
150.8
 20
192.25
 30
0.0
 40
4.0
  1
^J
 41
0.0
  7
EXCADSTD
 72
     5
 11
150.8
 21
192.25
 31
0.0
100
AcDbText
  0
CIRCLE
  5
5C4
100
AcDbEntity
  8
2
  6
CONTINUOUS
 62
     7
100
AcDbCircle
 10
136.9
 20
191.9
 30
0.0
 40
0.35
  0
LINE
  5
5C5
100
AcDbEntity
  8
2
  6
CONTINUOUS
 62
     3
100
AcDbLine
 10
23.75
 20
59.5
 30
0.0
 11
136.9
 21
59.5
 31
0.0
  0
LINE
  5
5C6
100
AcDbEntity
  8
2
  6
CONTINUOUS
 62
     3
100
AcDbLine
 10
36.9
 20
59.5
 30
0.0
 11
40.28074
 21
60.405867
 31
0.0
  0
LINE
  5
5C7
100
AcDbEntity
  8
2
  6
CONTINUOUS
 62
     3
100
AcDbLine
 10
36.9
 20
59.5
 30
0.0
 11
40.28074
 21
58.594133
 31
0.0
  0
LINE
  5
5C8
100
AcDbEntity
  8
2
  6
CONTINUOUS
 62
     3
100
AcDbLine
 10
136.9
 20
59.5
 30
0.0
 11
133.51926
 21
58.594133
 31
0.0
  0
LINE
  5
5C9
100
AcDbEntity
  8
2
  6
CONTINUOUS
 62
     3
100
AcDbLine
 10
136.9
 20
59.5
 30
0.0
 11
133.51926
 21
60.405867
 31
0.0
  0
LINE
  5
5CA
100
AcDbEntity
  8
2
  6
CONTINUOUS
 62
     3
100
AcDbLine
 10
156.8
 20
79.4
 30
0.0
 11
156.8
 21
192.1
 31
0.0
  0
LINE
  5
5CB
100
AcDbEntity
  8
2
  6
CONTINUOUS
 62
     3
100
AcDbLine
 10
156.8
 20
79.4
 30
0.0
 11
155.894133
 21
82.78074
 31
0.0
  0
LINE
  5
5CC
100
AcDbEntity
  8
2
  6
CONTINUOUS
 62
     3
100
AcDbLine
 10
156.8
 20
79.4
 30
0.0
 11
157.705867
 21
82.78074
 31
0.0
  0
LINE
  5
5CD
100
AcDbEntity
  8
2
  6
CONTINUOUS
 62
     3
100
AcDbLine
 10
156.8
 20
179.4
 30
0.0
 11
157.705867
 21
176.01926
 31
0.0
  0
LINE
  5
5CE
100
AcDbEntity
  8
2
  6
CONTINUOUS
 62
     3
100
AcDbLine
 10
156.8
 20
179.4
 30
0.0
 11
155.894133
 21
176.01926
 31
0.0
  0
LINE
  5
5CF
100
AcDbEntity
  8
2
  6
CONTINUOUS
 62
     3
100
AcDbLine
 10
156.8
 20
182.4
 30
0.0
 11
155.894133
 21
185.78074
 31
0.0
  0
LINE
  5
5D0
100
AcDbEntity
  8
2
  6
CONTINUOUS
 62
     3
100
AcDbLine
 10
156.8
 20
182.4
 30
0.0
 11
157.705867
 21
185.78074
 31
0.0
  0
LINE
  5
5D1
100
AcDbEntity
  8
2
  6
CONTINUOUS
 62
     3
100
AcDbLine
 10
33.9
 20
59.5
 30
0.0
 11
30.51926
 21
58.594133
 31
0.0
  0
LINE
  5
5D2
100
AcDbEntity
  8
2
  6
CONTINUOUS
 62
     3
100
AcDbLine
 10
33.9
 20
59.5
 30
0.0
 11
30.51926
 21
60.405867
 31
0.0
  0
TEXT
  5
5D3
100
AcDbEntity
  8
2
  6
CONTINUOUS
 62
     2
100
AcDbText
 10
23.19
 20
59.85
 30
0.0
 40
4.0
  1
^J１５
 41
0.610444
  7
EXCADSTD
 72
     5
 11
31.39
 21
59.85
 31
0.0
100
AcDbText
  0
TEXT
  5
5D4
100
AcDbEntity
  8
2
  6
CONTINUOUS
 62
     2
100
AcDbText
 10
30.99
 20
59.85
 30
0.0
 40
4.0
  1
^J
 41
0.0
  7
EXCADSTD
 72
     5
 11
30.99
 21
59.85
 31
0.0
100
AcDbText
  0
TEXT
  5
5D5
100
AcDbEntity
  8
2
  6
CONTINUOUS
 62
     2
100
AcDbText
 10
156.45
 20
185.1
 30
0.0
 40
4.0
  1
^J１５
 50
90.0
 41
0.610444
  7
EXCADSTD
 72
     5
 11
156.45
 21
193.3
 31
0.0
100
AcDbText
  0
TEXT
  5
5D6
100
AcDbEntity
  8
2
  6
CONTINUOUS
 62
     2
100
AcDbText
 10
156.45
 20
192.9
 30
0.0
 40
4.0
  1
^J
 50
90.0
 41
0.0
  7
EXCADSTD
 72
     5
 11
156.45
 21
192.9
 31
0.0
100
AcDbText
  0
CIRCLE
  5
5D7
100
AcDbEntity
  8
LAY-4
  6
CONTINUOUS
 62
     6
100
AcDbCircle
 10
113.6
 20
156.9
 30
0.0
 40
4.5
  0
TEXT
  5
5D8
100
AcDbEntity
  8
LAY-4
  6
CONTINUOUS
 62
     2
100
AcDbText
 10
110.418019
 20
153.718019
 30
0.0
 40
6.363961
  1
１
 41
0.84
  7
EXCADSTD
 72
     5
 11
115.509188
 21
153.718019
 31
0.0
100
AcDbText
  0
CIRCLE
  5
5D9
100
AcDbEntity
  8
LAY-4
  6
CONTINUOUS
 62
     6
100
AcDbCircle
 10
113.6
 20
129.8
 30
0.0
 40
4.5
  0
TEXT
  5
5DA
100
AcDbEntity
  8
LAY-4
  6
CONTINUOUS
 62
     2
100
AcDbText
 10
110.418019
 20
126.618019
 30
0.0
 40
6.363961
  1
３
 41
0.84
  7
EXCADSTD
 72
     5
 11
115.509188
 21
126.618019
 31
0.0
100
AcDbText
  0
CIRCLE
  5
5DB
100
AcDbEntity
  8
LAY-4
  6
CONTINUOUS
 62
     6
100
AcDbCircle
 10
113.6
 20
102.7
 30
0.0
 40
4.5
  0
TEXT
  5
5DC
100
AcDbEntity
  8
LAY-4
  6
CONTINUOUS
 62
     2
100
AcDbText
 10
110.418019
 20
99.518019
 30
0.0
 40
6.363961
  1
２
 41
0.84
  7
EXCADSTD
 72
     5
 11
115.509188
 21
99.518019
 31
0.0
100
AcDbText
  0
CIRCLE
  5
5DD
100
AcDbEntity
  8
LAY-4
  6
CONTINUOUS
 62
     6
100
AcDbCircle
 10
86.5
 20
102.7
 30
0.0
 40
4.5
  0
TEXT
  5
5DE
100
AcDbEntity
  8
LAY-4
  6
CONTINUOUS
 62
     2
100
AcDbText
 10
83.318019
 20
99.518019
 30
0.0
 40
6.363961
  1
３
 41
0.84
  7
EXCADSTD
 72
     5
 11
88.409188
 21
99.518019
 31
0.0
100
AcDbText
  0
CIRCLE
  5
5DF
100
AcDbEntity
  8
LAY-4
  6
CONTINUOUS
 62
     6
100
AcDbCircle
 10
59.4
 20
102.7
 30
0.0
 40
4.5
  0
TEXT
  5
5E0
100
AcDbEntity
  8
LAY-4
  6
CONTINUOUS
 62
     2
100
AcDbText
 10
56.218019
 20
99.518019
 30
0.0
 40
6.363961
  1
１
 41
0.84
  7
EXCADSTD
 72
     5
 11
61.309188
 21
99.518019
 31
0.0
100
AcDbText
  0
CIRCLE
  5
5E1
100
AcDbEntity
  8
LAY-4
  6
CONTINUOUS
 62
     6
100
AcDbCircle
 10
159.7
 20
220.559127
 30
0.0
 40
4.5
  0
TEXT
  5
5E2
100
AcDbEntity
  8
LAY-4
  6
CONTINUOUS
 62
     2
100
AcDbText
 10
156.518019
 20
217.377147
 30
0.0
 40
6.363961
  1
４
 41
0.84
  7
EXCADSTD
 72
     5
 11
161.609188
 21
217.377147
 31
0.0
100
AcDbText
  0
LEADER
  5
5E3
100
AcDbEntity
  8
LAY-4
  6
CONTINUOUS
 62
     6
100
AcDbLeader
  3
STANDARD
 73
     3
 74
     1
 75
     0
 40
0.0
 76
     2
 10
140.6
 20
229.003676
 30
0.0
 10
155.58431
 20
222.378768
 30
0.0
 77
     6
1001
ACAD
1000
DSTYLE
1002
{
1070
    41
1040
3.5
1070
     5
1000
_EX_NORM
1070
     6
1000
_EX_NORM
1070
     7
1000
_EX_NORM
1070
   341
1005
28
1002
}
  0
LEADER
  5
5E4
100
AcDbEntity
  8
LAY-4
  6
CONTINUOUS
 62
     6
100
AcDbLeader
  3
STANDARD
 73
     3
 74
     1
 75
     0
 40
0.0
 76
     2
 10
131.8
 20
174.4
 30
0.0
 10
116.843749
 20
160.018989
 30
0.0
 77
     6
1001
ACAD
1000
DSTYLE
1002
{
1070
    41
1040
3.5
1070
     5
1000
_EX_NORM
1070
     6
1000
_EX_NORM
1070
     7
1000
_EX_NORM
1070
   341
1005
28
1002
}
  0
LEADER
  5
5E5
100
AcDbEntity
  8
LAY-4
  6
CONTINUOUS
 62
     6
100
AcDbLeader
  3
STANDARD
 73
     3
 74
     1
 75
     0
 40
0.0
 76
     2
 10
131.136724
 20
85.570153
 30
0.0
 10
116.819105
 20
99.555583
 30
0.0
 77
     6
1001
ACAD
1000
DSTYLE
1002
{
1070
    41
1040
3.5
1070
     5
1000
_EX_NORM
1070
     6
1000
_EX_NORM
1070
     7
1000
_EX_NORM
1070
   341
1005
28
1002
}
  0
LEADER
  5
5E6
100
AcDbEntity
  8
LAY-4
  6
CONTINUOUS
 62
     6
100
AcDbLeader
  3
STANDARD
 73
     3
 74
     1
 75
     0
 40
0.0
 76
     2
 10
133.9
 20
145.5
 30
0.0
 10
117.159625
 20
132.553011
 30
0.0
 77
     6
1001
ACAD
1000
DSTYLE
1002
{
1070
    41
1040
3.5
1070
     5
1000
_EX_NORM
1070
     6
1000
_EX_NORM
1070
     7
1000
_EX_NORM
1070
   341
1005
28
1002
}
  0
LEADER
  5
5E7
100
AcDbEntity
  8
LAY-4
  6
CONTINUOUS
 62
     6
100
AcDbLeader
  3
STANDARD
 73
     3
 74
     1
 75
     0
 40
0.0
 76
     2
 10
41.9
 20
84.5
 30
0.0
 10
56.281011
 20
99.456251
 30
0.0
 77
     6
1001
ACAD
1000
DSTYLE
1002
{
1070
    41
1040
3.5
1070
     5
1000
_EX_NORM
1070
     6
1000
_EX_NORM
1070
     7
1000
_EX_NORM
1070
   341
1005
28
1002
}
  0
LEADER
  5
5E8
100
AcDbEntity
  8
LAY-4
  6
CONTINUOUS
 62
     6
100
AcDbLeader
  3
STANDARD
 73
     3
 74
     1
 75
     0
 40
0.0
 76
     2
 10
72.2
 20
82.4
 30
0.0
 10
83.908484
 20
99.021135
 30
0.0
 77
     6
1001
ACAD
1000
DSTYLE
1002
{
1070
    41
1040
3.5
1070
     5
1000
_EX_NORM
1070
     6
1000
_EX_NORM
1070
     7
1000
_EX_NORM
1070
   341
1005
28
1002
}
  0
LINE
  5
5E9
100
AcDbEntity
  8
LAY-4
  6
CONTINUOUS
 62
     6
100
AcDbLine
 10
146.8
 20
237.5
 30
0.0
 11
161.5
 21
237.5
 31
0.0
  0
TEXT
  5
5EA
100
AcDbEntity
  8
LAY-4
  6
CONTINUOUS
 62
     2
100
AcDbText
 10
146.8
 20
237.85
 30
0.0
 40
4.0
  1
５×５５
 41
0.819
  7
EXCADSTD
 72
     5
 11
162.4
 21
237.85
 31
0.0
100
AcDbText
  0
LEADER
  5
5EB
100
AcDbEntity
  8
LAY-4
  6
CONTINUOUS
 62
     6
100
AcDbLeader
  3
STANDARD
 73
     3
 74
     1
 75
     0
 40
0.0
 76
     2
 10
140.6
 20
232.258173
 30
0.0
 10
146.8
 20
237.5
 30
0.0
 77
     6
1001
ACAD
1000
DSTYLE
1002
{
1070
    41
1040
3.5
1070
     5
1000
_EX_NORM
1070
     6
1000
_EX_NORM
1070
     7
1000
_EX_NORM
1070
   341
1005
28
1002
}
  0
ENDSEC
  0
SECTION
  2
OBJECTS
  0
DICTIONARY
  5
19
100
AcDbDictionary
  3
ACAD_GROUP
350
1A
  3
ACAD_MLINESTYLE
350
1B
  0
DICTIONARY
  5
1A
102
{ACAD_REACTORS
330
19
102
}
100
AcDbDictionary
  0
DICTIONARY
  5
1B
102
{ACAD_REACTORS
330
19
102
}
100
AcDbDictionary
  3
STANDARD
350
1C
  0
MLINESTYLE
  5
1C
102
{ACAD_REACTORS
330
1B
102
}
100
AcDbMlineStyle
  2
Standard
 70
     0
  3

 62
     0
 51
90.0
 52
90.0
 71
     2
 49
0.5
 62
   256
  6
ByLayer
 49
-0.5
 62
   256
  6
ByLayer
  0
ENDSEC
  0
EOF
