  0
SECTION
  2
HEADER
  9
$ACADVER
  1
AC1014
  9
$ACADMAINTVER
 70
     0
  9
$DWGCODEPAGE
  3
ANSI_932
  9
$INSBASE
 10
0.0
 20
0.0
 30
0.0
  9
$EXTMIN
 10
-2.0
 20
0.0
 30
0.0
  9
$EXTMAX
 10
208.0
 20
297.0
 30
0.0
  9
$LIMMIN
 10
0.0
 20
0.0
  9
$LIMMAX
 10
210.0
 20
297.0
  9
$ORTHOMODE
 70
     0
  9
$REGENMODE
 70
     1
  9
$FILLMODE
 70
     1
  9
$QTEXTMODE
 70
     0
  9
$MIRRTEXT
 70
     1
  9
$DRAGMODE
 70
     2
  9
$LTSCALE
 40
1.0
  9
$OSMODE
 70
     0
  9
$ATTMODE
 70
     1
  9
$TEXTSIZE
 40
0.2
  9
$TRACEWID
 40
0.05
  9
$TEXTSTYLE
  7
STANDARD
  9
$CLAYER
  8
_
  9
$CELTYPE
  6
CONTINUOUS
  9
$CECOLOR
 62
   256
  9
$CELTSCALE
 40
1.0
  9
$DELOBJ
 70
     1
  9
$DISPSILH
 70
     0
  9
$DIMSCALE
 40
1.0
  9
$DIMASZ
 40
0.18
  9
$DIMEXO
 40
0.0625
  9
$DIMDLI
 40
0.38
  9
$DIMRND
 40
0.0
  9
$DIMDLE
 40
0.0
  9
$DIMEXE
 40
0.18
  9
$DIMTP
 40
0.0
  9
$DIMTM
 40
0.0
  9
$DIMTXT
 40
0.18
  9
$DIMCEN
 40
0.09
  9
$DIMTSZ
 40
0.0
  9
$DIMTOL
 70
     0
  9
$DIMLIM
 70
     0
  9
$DIMTIH
 70
     1
  9
$DIMTOH
 70
     1
  9
$DIMSE1
 70
     0
  9
$DIMSE2
 70
     0
  9
$DIMTAD
 70
     0
  9
$DIMZIN
 70
     0
  9
$DIMBLK
  1

  9
$DIMASO
 70
     1
  9
$DIMSHO
 70
     1
  9
$DIMPOST
  1

  9
$DIMAPOST
  1

  9
$DIMALT
 70
     0
  9
$DIMALTD
 70
     2
  9
$DIMALTF
 40
25.4
  9
$DIMLFAC
 40
1.0
  9
$DIMTOFL
 70
     0
  9
$DIMTVP
 40
0.0
  9
$DIMTIX
 70
     0
  9
$DIMSOXD
 70
     0
  9
$DIMSAH
 70
     0
  9
$DIMBLK1
  1

  9
$DIMBLK2
  1

  9
$DIMSTYLE
  2
STANDARD
  9
$DIMCLRD
 70
     0
  9
$DIMCLRE
 70
     0
  9
$DIMCLRT
 70
     0
  9
$DIMTFAC
 40
1.0
  9
$DIMGAP
 40
0.09
  9
$DIMJUST
 70
     0
  9
$DIMSD1
 70
     0
  9
$DIMSD2
 70
     0
  9
$DIMTOLJ
 70
     1
  9
$DIMTZIN
 70
     0
  9
$DIMALTZ
 70
     0
  9
$DIMALTTZ
 70
     0
  9
$DIMFIT
 70
     3
  9
$DIMUPT
 70
     0
  9
$DIMUNIT
 70
     2
  9
$DIMDEC
 70
     4
  9
$DIMTDEC
 70
     4
  9
$DIMALTU
 70
     2
  9
$DIMALTTD
 70
     2
  9
$DIMTXSTY
  7
STANDARD
  9
$DIMAUNIT
 70
     0
  9
$LUNITS
 70
     2
  9
$LUPREC
 70
     4
  9
$SKETCHINC
 40
0.1
  9
$FILLETRAD
 40
0.0
  9
$AUNITS
 70
     0
  9
$AUPREC
 70
     0
  9
$MENU
  1
acad
  9
$ELEVATION
 40
0.0
  9
$PELEVATION
 40
0.0
  9
$THICKNESS
 40
0.0
  9
$LIMCHECK
 70
     0
  9
$BLIPMODE
 70
     1
  9
$CHAMFERA
 40
0.0
  9
$CHAMFERB
 40
0.0
  9
$CHAMFERC
 40
0.0
  9
$CHAMFERD
 40
0.0
  9
$SKPOLY
 70
     0
  9
$TDCREATE
 40
2454518.838727593
  9
$TDUPDATE
 40
2454518.838727593
  9
$TDINDWG
 40
0.0000000000
  9
$TDUSRTIMER
 40
0.0000000000
  9
$USRTIMER
 70
     1
  9
$ANGBASE
 50
0.0
  9
$ANGDIR
 70
     0
  9
$PDMODE
 70
     0
  9
$PDSIZE
 40
0.0
  9
$PLINEWID
 40
0.0
  9
$COORDS
 70
     1
  9
$SPLFRAME
 70
     0
  9
$SPLINETYPE
 70
     6
  9
$SPLINESEGS
 70
     8
  9
$ATTDIA
 70
     0
  9
$ATTREQ
 70
     1
  9
$HANDLING
 70
     1
  9
$HANDSEED
  5
4FB
  9
$SURFTAB1
 70
     6
  9
$SURFTAB2
 70
     6
  9
$SURFTYPE
 70
     6
  9
$SURFU
 70
     6
  9
$SURFV
 70
     6
  9
$UCSNAME
  2

  9
$UCSORG
 10
0.0
 20
0.0
 30
0.0
  9
$UCSXDIR
 10
1.0
 20
0.0
 30
0.0
  9
$UCSYDIR
 10
0.0
 20
1.0
 30
0.0
  9
$PUCSNAME
  2

  9
$PUCSORG
 10
0.0
 20
0.0
 30
0.0
  9
$PUCSXDIR
 10
1.0
 20
0.0
 30
0.0
  9
$PUCSYDIR
 10
0.0
 20
1.0
 30
0.0
  9
$USERI1
 70
     0
  9
$USERI2
 70
     0
  9
$USERI3
 70
     0
  9
$USERI4
 70
     0
  9
$USERI5
 70
     0
  9
$USERR1
 40
0.0
  9
$USERR2
 40
0.0
  9
$USERR3
 40
0.0
  9
$USERR4
 40
0.0
  9
$USERR5
 40
0.0
  9
$WORLDVIEW
 70
     1
  9
$SHADEDGE
 70
     3
  9
$SHADEDIF
 70
    70
  9
$TILEMODE
 70
     1
  9
$MAXACTVP
 70
    16
  9
$PINSBASE
 10
0.0
 20
0.0
 30
0.0
  9
$PLIMCHECK
 70
     0
  9
$PEXTMIN
 10
1.000000E+20
 20
1.000000E+20
 30
1.000000E+20
  9
$PEXTMAX
 10
-1.000000E+20
 20
-1.000000E+20
 30
-1.000000E+20
  9
$PLIMMIN
 10
0.0
 20
0.0
  9
$PLIMMAX
 10
12.0
 20
9.0
  9
$UNITMODE
 70
     0
  9
$VISRETAIN
 70
     0
  9
$PLINEGEN
 70
     1
  9
$PSLTSCALE
 70
     0
  9
$TREEDEPTH
 70
  3020
  9
$PICKSTYLE
 70
     1
  9
$CMLSTYLE
  2
Standard
  9
$CMLJUST
 70
     0
  9
$CMLSCALE
 40
1.0
  9
$PROXYGRAPHICS
 70
     0
  9
$MEASUREMENT
 70
     0
  0
ENDSEC
  0
SECTION
  2
CLASSES
  0
CLASS
  1
LWPOLYLINE
  2
AcDbPolyline
  3
"AutoCAD"
 90
        0
280
     0
281
     1
  0
CLASS
  1
IMAGE
  2
AcDbRasterImage
  3
ISM
 90
      127
280
     0
281
     1
  0
CLASS
  1
OLE2FRAME
  2
AcDbOle2Frame
  3
""
 90
        0
280
     0
281
     1
  0
CLASS
  1
HATCH
  2
AcDbHatch
  3
"ACAD_SEDONA"
 90
        0
280
     0
281
     1
  0
CLASS
  1
DICTIONARYVAR
  2
AcDbDictionaryVar
  3
"AutoCAD"
 90
        0
280
     0
281
     0
  0
CLASS
  1
RASTERVARIABLES
  2
AcDbRasterVariables
  3
ISM
 90
        0
280
     0
281
     0
  0
CLASS
  1
IMAGEDEF
  2
AcDbRasterImageDef
  3
ISM
 90
        0
280
     0
281
     0
  0
CLASS
  1
IMAGEDEF_REACTOR
  2
AcDbRasterImageDefReactor
  3
ISM
 90
        1
280
     0
281
     0
  0
CLASS
  1
IDBUFFER
  2
AcDbIdBuffer
  3
"Acad"
 90
        0
280
     0
281
     0
  0
CLASS
  1
SPATIAL_FILTER
  2
AcDbSpatialFilter
  3
"Acad"
 90
        0
280
     0
281
     0
  0
CLASS
  1
XRECORD
  2
AcDbXrecord
  3
"<Built In>"
 90
        0
280
     0
281
     0
  0
CLASS
  1
SORTENTSTABLE
  2
AcDbSortentsTable
  3
"AutoCAD"
 90
        0
280
     0
281
     0
  0
CLASS
  1
LAYER_INDEX
  2
AcDbLayerIndex
  3
"Acad"
 90
        0
280
     0
281
     0
  0
CLASS
  1
SPATIAL_INDEX
  2
AcDbSpatialIndex
  3
"Acad"
 90
        0
280
     0
281
     0
  0
CLASS
  1
OBJECT_PTR
  2
CAseDLPNTableRecord
  3
"ASE-LPNTableRecord"
 90
        1
280
     0
281
     0
  0
CLASS
  1
LAYOUT
  2
AcDbLayout
  3
"AutoCAD 2000"
 90
        1
280
     0
281
     0
  0
CLASS
  1
PLOTSETTINGS
  2
AcDbPlotSettings
  3
"AutoCAD 2000"
 90
        1
280
     0
281
     0
  0
CLASS
  1
ACDBDICTIONARYWDFLT
  2
AcDbDictionaryWithDefault
  3
"AutoCAD 2000"
 90
        1
280
     0
281
     0
  0
CLASS
  1
ACDBPLACEHOLDER
  2
AcDbPlaceHolder
  3
"AutoCAD 2000"
 90
        1
280
     0
281
     0
  0
CLASS
  1
VBA_PROJECT
  2
AcDbVbaProject
  3
"acadvba"
 90
        1
280
     0
281
     0
  0
CLASS
  1
WIPEOUT
  2
AcDbWipeout
  3
WipeOut|AutoCAD Express Tool|expresstools@autodesk.com
 90
      127
280
     0
281
     1
  0
CLASS
  1
WIPEOUTVARIABLES
  2
AcDbWipeoutVariables
  3
WipeOut|AutoCAD Express Tool|expresstools@autodesk.com
 90
        0
280
     0
281
     0
  0
CLASS
  1
RTEXT
  2
RText
  3
RText|AutoCAD Express Tool|expresstools@autodesk.com
 90
        0
280
     0
281
     1
  0
CLASS
  1
ARCALIGNEDTEXT
  2
AcDbArcAlignedText
  3
ATEXT|AutoCAD Express Tool|expresstools@autodesk.com
 90
        0
280
     0
281
     1
  0
ENDSEC
  0
SECTION
  2
TABLES
  0
TABLE
  2
VPORT
  5
7
100
AcDbSymbolTable
 70
     1
  0
VPORT
  5
15
100
AcDbSymbolTableRecord
100
AcDbViewportTableRecord
  2
*ACTIVE
 70
     0
 10
0.0
 20
0.0
 11
1.0
 21
1.0
 12
206.0
 22
297.0
 13
0.0
 23
0.0
 14
1.0
 24
1.0
 15
0.0
 25
0.0
 16
0.0
 26
0.0
 36
1.0
 17
0.0
 27
0.0
 37
0.0
 40
594.0
 41
1.722533
 42
50.0
 43
0.0
 44
0.0
 50
0.0
 51
0.0
 71
     0
 72
   100
 73
     1
 74
     1
 75
     0
 76
     0
 77
     0
 78
     0
  0
ENDTAB
  0
TABLE
  2
LTYPE
  5
4
100
AcDbSymbolTable
 70
     9
  0
LTYPE
  5
11
100
AcDbSymbolTableRecord
100
AcDbLinetypeTableRecord
  2
BYBLOCK
 70
    64
  3

 72
    65
 73
     0
 40
0.0
  0
LTYPE
  5
12
100
AcDbSymbolTableRecord
100
AcDbLinetypeTableRecord
  2
BYLAYER
 70
    64
  3

 72
    65
 73
     0
 40
0.0
  0
LTYPE
  5
13
100
AcDbSymbolTableRecord
100
AcDbLinetypeTableRecord
  2
CONTINUOUS
 70
    64
  3
実線
 72
    65
 73
     0
 40
0.0
  0
LTYPE
  5
1D
100
AcDbSymbolTableRecord
100
AcDbLinetypeTableRecord
  2
EXLTYPE1
 70
    64
  3
破線
 72
    65
 73
     2
 40
3.0
 49
2.0
 74
     0
 49
-1.0
 74
     0
  0
LTYPE
  5
1E
100
AcDbSymbolTableRecord
100
AcDbLinetypeTableRecord
  2
EXLTYPE2
 70
    64
  3
点線
 72
    65
 73
     2
 40
2.0
 49
1.0
 74
     0
 49
-1.0
 74
     0
  0
LTYPE
  5
1F
100
AcDbSymbolTableRecord
100
AcDbLinetypeTableRecord
  2
EXLTYPE3
 70
    64
  3
一点鎖線
 72
    65
 73
     4
 40
10.0
 49
7.0
 74
     0
 49
-1.0
 74
     0
 49
1.0
 74
     0
 49
-1.0
 74
     0
  0
LTYPE
  5
20
100
AcDbSymbolTableRecord
100
AcDbLinetypeTableRecord
  2
EXLTYPE4
 70
    64
  3
二点鎖線
 72
    65
 73
     6
 40
12.0
 49
7.0
 74
     0
 49
-1.0
 74
     0
 49
1.0
 74
     0
 49
-1.0
 74
     0
 49
1.0
 74
     0
 49
-1.0
 74
     0
  0
LTYPE
  5
21
100
AcDbSymbolTableRecord
100
AcDbLinetypeTableRecord
  2
EXLTYPE5
 70
    64
  3
三点鎖線
 72
    65
 73
     8
 40
37.0
 49
30.0
 74
     0
 49
-1.0
 74
     0
 49
1.0
 74
     0
 49
-1.0
 74
     0
 49
1.0
 74
     0
 49
-1.0
 74
     0
 49
1.0
 74
     0
 49
-1.0
 74
     0
  0
LTYPE
  5
22
100
AcDbSymbolTableRecord
100
AcDbLinetypeTableRecord
  2
EXLTYPE6
 70
    64
  3
四点鎖線
 72
    65
 73
    10
 40
39.0
 49
30.0
 74
     0
 49
-1.0
 74
     0
 49
1.0
 74
     0
 49
-1.0
 74
     0
 49
1.0
 74
     0
 49
-1.0
 74
     0
 49
1.0
 74
     0
 49
-1.0
 74
     0
 49
1.0
 74
     0
 49
-1.0
 74
     0
  0
ENDTAB
  0
TABLE
  2
LAYER
  5
2
100
AcDbSymbolTable
 70
     4
  0
LAYER
  5
14
100
AcDbSymbolTableRecord
100
AcDbLayerTableRecord
  2
0
 70
     0
 62
     7
  6
CONTINUOUS
  0
LAYER
  5
25
100
AcDbSymbolTableRecord
100
AcDbLayerTableRecord
  2
_
 70
    64
 62
     7
  6
CONTINUOUS
  0
LAYER
  5
26
100
AcDbSymbolTableRecord
100
AcDbLayerTableRecord
  2
_2
 70
    64
 62
     7
  6
CONTINUOUS
  0
LAYER
  5
27
100
AcDbSymbolTableRecord
100
AcDbLayerTableRecord
  2
LAY-3
 70
    64
 62
     7
  6
CONTINUOUS
  0
ENDTAB
  0
TABLE
  2
STYLE
  5
3
100
AcDbSymbolTable
 70
     3
  0
STYLE
  5
17
100
AcDbSymbolTableRecord
100
AcDbTextStyleTableRecord
  2
STANDARD
 70
     0
 40
0.0
 41
1.0
 50
0.0
 71
     0
 42
0.0
  3
monotxt
  4
extfont
  0
STYLE
  5
23
100
AcDbSymbolTableRecord
100
AcDbTextStyleTableRecord
  2
EXCADSTD
 70
    64
 40
0.0
 41
1.0
 50
0.0
 71
     0
 42
0.2
  3
monotxt
  4
extfont
  0
STYLE
  5
24
100
AcDbSymbolTableRecord
100
AcDbTextStyleTableRecord
  2
EXCADVERT
 70
    68
 40
0.0
 41
1.0
 50
0.0
 71
     0
 42
0.286885
  3
monotxt
  4
extfont
  0
ENDTAB
  0
TABLE
  2
VIEW
  5
5
100
AcDbSymbolTable
 70
     0
  0
ENDTAB
  0
TABLE
  2
UCS
  5
6
100
AcDbSymbolTable
 70
     0
  0
ENDTAB
  0
TABLE
  2
APPID
  5
8
100
AcDbSymbolTable
 70
     1
  0
APPID
  5
16
100
AcDbSymbolTableRecord
100
AcDbRegAppTableRecord
  2
ACAD
 70
     0
  0
ENDTAB
  0
TABLE
  2
DIMSTYLE
  5
9
100
AcDbSymbolTable
 70
     1
  0
DIMSTYLE
105
18
100
AcDbSymbolTableRecord
100
AcDbDimStyleTableRecord
  2
STANDARD
 70
     0
  3

  4

  5

  6

  7

 40
1.0
 41
0.18
 42
0.0625
 43
0.38
 44
0.18
 45
0.0
 46
0.0
 47
0.0
 48
0.0
 71
     0
 72
     0
 73
     1
 74
     1
 75
     0
 76
     0
 77
     0
 78
     0
140
0.18
141
0.09
142
0.0
143
25.4
144
1.0
145
0.0
146
1.0
147
0.09
170
     0
171
     2
172
     1
173
     0
174
     0
175
     0
176
     0
177
     0
178
     0
270
     2
271
     4
272
     4
273
     2
274
     2
275
     0
280
     0
281
     0
282
     0
283
     1
284
     0
285
     0
286
     0
287
     0
288
     0
340
17
  0
ENDTAB
  0
TABLE
  2
BLOCK_RECORD
  5
1
100
AcDbSymbolTable
 70
    14
  0
BLOCK_RECORD
  5
A
100
AcDbSymbolTableRecord
100
AcDbBlockTableRecord
  2
*MODEL_SPACE
  0
BLOCK_RECORD
  5
B
100
AcDbSymbolTableRecord
100
AcDbBlockTableRecord
  2
*PAPER_SPACE
  0
BLOCK_RECORD
  5
28
100
AcDbSymbolTableRecord
100
AcDbBlockTableRecord
  2
_EX_NORM
  0
BLOCK_RECORD
  5
29
100
AcDbSymbolTableRecord
100
AcDbBlockTableRecord
  2
_EX_BNORM
  0
BLOCK_RECORD
  5
2A
100
AcDbSymbolTableRecord
100
AcDbBlockTableRecord
  2
_EX_BCIR
  0
BLOCK_RECORD
  5
2B
100
AcDbSymbolTableRecord
100
AcDbBlockTableRecord
  2
_EX_RCIVIL
  0
BLOCK_RECORD
  5
2C
100
AcDbSymbolTableRecord
100
AcDbBlockTableRecord
  2
_EX_SLANT
  0
BLOCK_RECORD
  5
2D
100
AcDbSymbolTableRecord
100
AcDbBlockTableRecord
  2
_EX_NONE
  0
BLOCK_RECORD
  5
2E
100
AcDbSymbolTableRecord
100
AcDbBlockTableRecord
  2
_EX_CIVIL
  0
BLOCK_RECORD
  5
2F
100
AcDbSymbolTableRecord
100
AcDbBlockTableRecord
  2
_EX_WCIR
  0
BLOCK_RECORD
  5
30
100
AcDbSymbolTableRecord
100
AcDbBlockTableRecord
  2
_EX_WCIR2
  0
BLOCK_RECORD
  5
31
100
AcDbSymbolTableRecord
100
AcDbBlockTableRecord
  2
_EX_WNORM
  0
BLOCK_RECORD
  5
32
100
AcDbSymbolTableRecord
100
AcDbBlockTableRecord
  2
_EX_NNORM
  0
BLOCK_RECORD
  5
33
100
AcDbSymbolTableRecord
100
AcDbBlockTableRecord
  2
_EX_BBOX
  0
BLOCK_RECORD
  5
34
100
AcDbSymbolTableRecord
100
AcDbBlockTableRecord
  2
_EX_WBOX
  0
BLOCK_RECORD
  5
35
100
AcDbSymbolTableRecord
100
AcDbBlockTableRecord
  2
_EX_INTEGRAL
  0
ENDTAB
  0
ENDSEC
  0
SECTION
  2
BLOCKS
  0
BLOCK
  5
D
100
AcDbEntity
  8
0
100
AcDbBlockBegin
  2
*MODEL_SPACE
 70
     0
 10
0.0
 20
0.0
 30
0.0
  3
*MODEL_SPACE
  1

  0
ENDBLK
  5
E
100
AcDbEntity
  8
0
100
AcDbBlockEnd
  0
BLOCK
  5
F
100
AcDbEntity
 67
     1
  8
0
100
AcDbBlockBegin
  2
*PAPER_SPACE
 70
     0
 10
0.0
 20
0.0
 30
0.0
  3
*PAPER_SPACE
  1

  0
ENDBLK
  5
10
100
AcDbEntity
 67
     1
  8
0
100
AcDbBlockEnd
  0
BLOCK
  5
36
100
AcDbEntity
  8
0
100
AcDbBlockBegin
  2
_EX_NORM
 70
     0
 10
0.0
 20
0.0
 30
0.0
  3
_EX_NORM
  1

  0
LINE
  5
37
100
AcDbEntity
  8
0
  6
CONTINUOUS
 62
     0
100
AcDbLine
 10
0.0
 20
0.0
 30
0.0
 11
-1.0
 21
0.0
 31
0.0
  0
LINE
  5
38
100
AcDbEntity
  8
0
  6
CONTINUOUS
 62
     0
100
AcDbLine
 10
0.0
 20
0.0
 30
0.0
 11
-1.0
 21
0.166667
 31
0.0
  0
LINE
  5
39
100
AcDbEntity
  8
0
  6
CONTINUOUS
 62
     0
100
AcDbLine
 10
0.0
 20
0.0
 30
0.0
 11
-1.0
 21
-0.166667
 31
0.0
  0
ENDBLK
  5
3A
100
AcDbEntity
  8
0
100
AcDbBlockEnd
  0
BLOCK
  5
3B
100
AcDbEntity
  8
0
100
AcDbBlockBegin
  2
_EX_BNORM
 70
     0
 10
0.0
 20
0.0
 30
0.0
  3
_EX_BNORM
  1

  0
LINE
  5
3C
100
AcDbEntity
  8
0
  6
CONTINUOUS
 62
     0
100
AcDbLine
 10
0.0
 20
0.0
 30
0.0
 11
-1.0
 21
0.0
 31
0.0
  0
LINE
  5
3D
100
AcDbEntity
  8
0
  6
CONTINUOUS
 62
     0
100
AcDbLine
 10
0.0
 20
0.0
 30
0.0
 11
-1.0
 21
0.166667
 31
0.0
  0
LINE
  5
3E
100
AcDbEntity
  8
0
  6
CONTINUOUS
 62
     0
100
AcDbLine
 10
0.0
 20
0.0
 30
0.0
 11
-1.0
 21
-0.166667
 31
0.0
  0
LINE
  5
3F
100
AcDbEntity
  8
0
  6
CONTINUOUS
 62
     0
100
AcDbLine
 10
0.0
 20
0.0
 30
0.0
 11
-1.0
 21
0.083333
 31
0.0
  0
LINE
  5
40
100
AcDbEntity
  8
0
  6
CONTINUOUS
 62
     0
100
AcDbLine
 10
0.0
 20
0.0
 30
0.0
 11
-1.0
 21
-0.083333
 31
0.0
  0
LINE
  5
41
100
AcDbEntity
  8
0
  6
CONTINUOUS
 62
     0
100
AcDbLine
 10
-1.0
 20
0.166667
 30
0.0
 11
-1.0
 21
-0.166667
 31
0.0
  0
ENDBLK
  5
42
100
AcDbEntity
  8
0
100
AcDbBlockEnd
  0
BLOCK
  5
43
100
AcDbEntity
  8
0
100
AcDbBlockBegin
  2
_EX_BCIR
 70
     0
 10
0.0
 20
0.0
 30
0.0
  3
_EX_BCIR
  1

  0
LINE
  5
44
100
AcDbEntity
  8
0
  6
CONTINUOUS
 62
     0
100
AcDbLine
 10
0.0
 20
0.0
 30
0.0
 11
-1.0
 21
0.0
 31
0.0
  0
CIRCLE
  5
45
100
AcDbEntity
  8
0
  6
CONTINUOUS
 62
     0
100
AcDbCircle
 10
0.0
 20
0.0
 30
0.0
 40
0.5
  0
CIRCLE
  5
46
100
AcDbEntity
  8
0
  6
CONTINUOUS
 62
     0
100
AcDbCircle
 10
0.0
 20
0.0
 30
0.0
 40
0.25
  0
ENDBLK
  5
47
100
AcDbEntity
  8
0
100
AcDbBlockEnd
  0
BLOCK
  5
48
100
AcDbEntity
  8
0
100
AcDbBlockBegin
  2
_EX_RCIVIL
 70
     0
 10
0.0
 20
0.0
 30
0.0
  3
_EX_RCIVIL
  1

  0
LINE
  5
49
100
AcDbEntity
  8
0
  6
CONTINUOUS
 62
     0
100
AcDbLine
 10
0.0
 20
0.0
 30
0.0
 11
-1.0
 21
0.0
 31
0.0
  0
LINE
  5
4A
100
AcDbEntity
  8
0
  6
CONTINUOUS
 62
     0
100
AcDbLine
 10
-1.0
 20
-0.25
 30
0.0
 11
0.0
 21
-0.25
 31
0.0
  0
LINE
  5
4B
100
AcDbEntity
  8
0
  6
CONTINUOUS
 62
     0
100
AcDbLine
 10
-1.0
 20
-0.125
 30
0.0
 11
0.0
 21
-0.125
 31
0.0
  0
ENDBLK
  5
4C
100
AcDbEntity
  8
0
100
AcDbBlockEnd
  0
BLOCK
  5
4D
100
AcDbEntity
  8
0
100
AcDbBlockBegin
  2
_EX_SLANT
 70
     0
 10
0.0
 20
0.0
 30
0.0
  3
_EX_SLANT
  1

  0
LINE
  5
4E
100
AcDbEntity
  8
0
  6
CONTINUOUS
 62
     0
100
AcDbLine
 10
0.0
 20
0.0
 30
0.0
 11
-1.0
 21
0.0
 31
0.0
  0
LINE
  5
4F
100
AcDbEntity
  8
0
  6
CONTINUOUS
 62
     0
100
AcDbLine
 10
0.707107
 20
0.707107
 30
0.0
 11
-0.707107
 21
-0.707107
 31
0.0
  0
ENDBLK
  5
50
100
AcDbEntity
  8
0
100
AcDbBlockEnd
  0
BLOCK
  5
51
100
AcDbEntity
  8
0
100
AcDbBlockBegin
  2
_EX_NONE
 70
     0
 10
0.0
 20
0.0
 30
0.0
  3
_EX_NONE
  1

  0
LINE
  5
52
100
AcDbEntity
  8
0
  6
CONTINUOUS
 62
     0
100
AcDbLine
 10
0.0
 20
0.0
 30
0.0
 11
-1.0
 21
0.0
 31
0.0
  0
ENDBLK
  5
53
100
AcDbEntity
  8
0
100
AcDbBlockEnd
  0
BLOCK
  5
54
100
AcDbEntity
  8
0
100
AcDbBlockBegin
  2
_EX_CIVIL
 70
     0
 10
0.0
 20
0.0
 30
0.0
  3
_EX_CIVIL
  1

  0
LINE
  5
55
100
AcDbEntity
  8
0
  6
CONTINUOUS
 62
     0
100
AcDbLine
 10
0.0
 20
0.0
 30
0.0
 11
-1.0
 21
0.0
 31
0.0
  0
LINE
  5
56
100
AcDbEntity
  8
0
  6
CONTINUOUS
 62
     0
100
AcDbLine
 10
-1.0
 20
0.25
 30
0.0
 11
0.0
 21
0.25
 31
0.0
  0
LINE
  5
57
100
AcDbEntity
  8
0
  6
CONTINUOUS
 62
     0
100
AcDbLine
 10
-1.0
 20
0.125
 30
0.0
 11
0.0
 21
0.125
 31
0.0
  0
ENDBLK
  5
58
100
AcDbEntity
  8
0
100
AcDbBlockEnd
  0
BLOCK
  5
59
100
AcDbEntity
  8
0
100
AcDbBlockBegin
  2
_EX_WCIR
 70
     0
 10
0.0
 20
0.0
 30
0.0
  3
_EX_WCIR
  1

  0
LINE
  5
5A
100
AcDbEntity
  8
0
  6
CONTINUOUS
 62
     0
100
AcDbLine
 10
0.0
 20
0.0
 30
0.0
 11
-1.0
 21
0.0
 31
0.0
  0
CIRCLE
  5
5B
100
AcDbEntity
  8
0
  6
CONTINUOUS
 62
     0
100
AcDbCircle
 10
0.0
 20
0.0
 30
0.0
 40
0.5
  0
ENDBLK
  5
5C
100
AcDbEntity
  8
0
100
AcDbBlockEnd
  0
BLOCK
  5
5D
100
AcDbEntity
  8
0
100
AcDbBlockBegin
  2
_EX_WCIR2
 70
     0
 10
0.0
 20
0.0
 30
0.0
  3
_EX_WCIR2
  1

  0
LINE
  5
5E
100
AcDbEntity
  8
0
  6
CONTINUOUS
 62
     0
100
AcDbLine
 10
-0.5
 20
0.0
 30
0.0
 11
-1.0
 21
0.0
 31
0.0
  0
CIRCLE
  5
5F
100
AcDbEntity
  8
0
  6
CONTINUOUS
 62
     0
100
AcDbCircle
 10
0.0
 20
0.0
 30
0.0
 40
0.5
  0
ENDBLK
  5
60
100
AcDbEntity
  8
0
100
AcDbBlockEnd
  0
BLOCK
  5
61
100
AcDbEntity
  8
0
100
AcDbBlockBegin
  2
_EX_WNORM
 70
     0
 10
0.0
 20
0.0
 30
0.0
  3
_EX_WNORM
  1

  0
LINE
  5
62
100
AcDbEntity
  8
0
  6
CONTINUOUS
 62
     0
100
AcDbLine
 10
-1.0
 20
0.0
 30
0.0
 11
-1.0
 21
0.0
 31
0.0
  0
LINE
  5
63
100
AcDbEntity
  8
0
  6
CONTINUOUS
 62
     0
100
AcDbLine
 10
0.0
 20
0.0
 30
0.0
 11
-1.0
 21
0.166667
 31
0.0
  0
LINE
  5
64
100
AcDbEntity
  8
0
  6
CONTINUOUS
 62
     0
100
AcDbLine
 10
0.0
 20
0.0
 30
0.0
 11
-1.0
 21
-0.166667
 31
0.0
  0
LINE
  5
65
100
AcDbEntity
  8
0
  6
CONTINUOUS
 62
     0
100
AcDbLine
 10
-1.0
 20
0.166667
 30
0.0
 11
-1.0
 21
-0.166667
 31
0.0
  0
ENDBLK
  5
66
100
AcDbEntity
  8
0
100
AcDbBlockEnd
  0
BLOCK
  5
67
100
AcDbEntity
  8
0
100
AcDbBlockBegin
  2
_EX_NNORM
 70
     0
 10
0.0
 20
0.0
 30
0.0
  3
_EX_NNORM
  1

  0
LINE
  5
68
100
AcDbEntity
  8
0
  6
CONTINUOUS
 62
     0
100
AcDbLine
 10
0.0
 20
0.0
 30
0.0
 11
-1.0
 21
0.0
 31
0.0
  0
LINE
  5
69
100
AcDbEntity
  8
0
  6
CONTINUOUS
 62
     0
100
AcDbLine
 10
0.0
 20
0.0
 30
0.0
 11
-1.0
 21
0.166667
 31
0.0
  0
LINE
  5
6A
100
AcDbEntity
  8
0
  6
CONTINUOUS
 62
     0
100
AcDbLine
 10
0.0
 20
0.0
 30
0.0
 11
-1.0
 21
-0.166667
 31
0.0
  0
LINE
  5
6B
100
AcDbEntity
  8
0
  6
CONTINUOUS
 62
     0
100
AcDbLine
 10
-1.0
 20
0.166667
 30
0.0
 11
-1.0
 21
-0.166667
 31
0.0
  0
ENDBLK
  5
6C
100
AcDbEntity
  8
0
100
AcDbBlockEnd
  0
BLOCK
  5
6D
100
AcDbEntity
  8
0
100
AcDbBlockBegin
  2
_EX_BBOX
 70
     0
 10
0.0
 20
0.0
 30
0.0
  3
_EX_BBOX
  1

  0
LINE
  5
6E
100
AcDbEntity
  8
0
  6
CONTINUOUS
 62
     0
100
AcDbLine
 10
0.0
 20
0.0
 30
0.0
 11
-1.0
 21
0.0
 31
0.0
  0
LINE
  5
6F
100
AcDbEntity
  8
0
  6
CONTINUOUS
 62
     0
100
AcDbLine
 10
-0.5
 20
0.5
 30
0.0
 11
0.5
 21
0.5
 31
0.0
  0
LINE
  5
70
100
AcDbEntity
  8
0
  6
CONTINUOUS
 62
     0
100
AcDbLine
 10
0.5
 20
0.5
 30
0.0
 11
0.5
 21
-0.5
 31
0.0
  0
LINE
  5
71
100
AcDbEntity
  8
0
  6
CONTINUOUS
 62
     0
100
AcDbLine
 10
0.5
 20
-0.5
 30
0.0
 11
-0.5
 21
-0.5
 31
0.0
  0
LINE
  5
72
100
AcDbEntity
  8
0
  6
CONTINUOUS
 62
     0
100
AcDbLine
 10
-0.5
 20
-0.5
 30
0.0
 11
-0.5
 21
0.5
 31
0.0
  0
LINE
  5
73
100
AcDbEntity
  8
0
  6
CONTINUOUS
 62
     0
100
AcDbLine
 10
-0.25
 20
0.25
 30
0.0
 11
0.25
 21
0.25
 31
0.0
  0
LINE
  5
74
100
AcDbEntity
  8
0
  6
CONTINUOUS
 62
     0
100
AcDbLine
 10
0.25
 20
0.25
 30
0.0
 11
0.25
 21
-0.25
 31
0.0
  0
LINE
  5
75
100
AcDbEntity
  8
0
  6
CONTINUOUS
 62
     0
100
AcDbLine
 10
0.25
 20
-0.25
 30
0.0
 11
-0.25
 21
-0.25
 31
0.0
  0
LINE
  5
76
100
AcDbEntity
  8
0
  6
CONTINUOUS
 62
     0
100
AcDbLine
 10
-0.25
 20
-0.25
 30
0.0
 11
-0.25
 21
0.25
 31
0.0
  0
ENDBLK
  5
77
100
AcDbEntity
  8
0
100
AcDbBlockEnd
  0
BLOCK
  5
78
100
AcDbEntity
  8
0
100
AcDbBlockBegin
  2
_EX_WBOX
 70
     0
 10
0.0
 20
0.0
 30
0.0
  3
_EX_WBOX
  1

  0
LINE
  5
79
100
AcDbEntity
  8
0
  6
CONTINUOUS
 62
     0
100
AcDbLine
 10
-0.5
 20
0.0
 30
0.0
 11
-1.0
 21
0.0
 31
0.0
  0
LINE
  5
7A
100
AcDbEntity
  8
0
  6
CONTINUOUS
 62
     0
100
AcDbLine
 10
-0.5
 20
0.5
 30
0.0
 11
0.5
 21
0.5
 31
0.0
  0
LINE
  5
7B
100
AcDbEntity
  8
0
  6
CONTINUOUS
 62
     0
100
AcDbLine
 10
0.5
 20
0.5
 30
0.0
 11
0.5
 21
-0.5
 31
0.0
  0
LINE
  5
7C
100
AcDbEntity
  8
0
  6
CONTINUOUS
 62
     0
100
AcDbLine
 10
0.5
 20
-0.5
 30
0.0
 11
-0.5
 21
-0.5
 31
0.0
  0
LINE
  5
7D
100
AcDbEntity
  8
0
  6
CONTINUOUS
 62
     0
100
AcDbLine
 10
-0.5
 20
-0.5
 30
0.0
 11
-0.5
 21
0.5
 31
0.0
  0
ENDBLK
  5
7E
100
AcDbEntity
  8
0
100
AcDbBlockEnd
  0
BLOCK
  5
7F
100
AcDbEntity
  8
0
100
AcDbBlockBegin
  2
_EX_INTEGRAL
 70
     0
 10
0.0
 20
0.0
 30
0.0
  3
_EX_INTEGRAL
  1

  0
LINE
  5
80
100
AcDbEntity
  8
0
  6
CONTINUOUS
 62
     0
100
AcDbLine
 10
0.0
 20
0.0
 30
0.0
 11
-1.0
 21
0.0
 31
0.0
  0
ARC
  5
81
100
AcDbEntity
  8
0
  6
CONTINUOUS
 62
     0
100
AcDbCircle
 10
0.542115
 20
0.164992
 30
0.0
 40
0.56667
100
AcDbArc
 50
73.07249
 51
196.927513
  0
ARC
  5
82
100
AcDbEntity
  8
0
  6
CONTINUOUS
 62
     0
100
AcDbCircle
 10
-0.542115
 20
-0.164992
 30
0.0
 40
0.56667
100
AcDbArc
 50
253.072487
 51
16.927513
  0
ENDBLK
  5
83
100
AcDbEntity
  8
0
100
AcDbBlockEnd
  0
ENDSEC
  0
SECTION
  2
ENTITIES
  0
TEXT
  5
84
100
AcDbEntity
  8
LAY-3
  6
CONTINUOUS
 62
     2
100
AcDbText
 10
266.3
 20
503.5
 30
0.0
 40
8.0
  1
８
 50
90.0
 41
0.945
  7
EXCADSTD
 72
     5
 11
266.3
 21
510.7
 31
0.0
100
AcDbText
  0
LINE
  5
85
100
AcDbEntity
  8
LAY-3
  6
CONTINUOUS
 62
     3
100
AcDbLine
 10
267.0
 20
521.0
 30
0.0
 11
267.0
 21
495.0
 31
0.0
  0
LINE
  5
86
100
AcDbEntity
  8
LAY-3
  6
CONTINUOUS
 62
     3
100
AcDbLine
 10
265.833333
 20
519.0
 30
0.0
 11
267.0
 21
512.0
 31
0.0
  0
LINE
  5
87
100
AcDbEntity
  8
LAY-3
  6
CONTINUOUS
 62
     3
100
AcDbLine
 10
267.0
 20
512.0
 30
0.0
 11
268.166667
 21
519.0
 31
0.0
  0
LINE
  5
88
100
AcDbEntity
  8
LAY-3
  6
CONTINUOUS
 62
     3
100
AcDbLine
 10
268.166667
 20
497.0
 30
0.0
 11
267.0
 21
504.0
 31
0.0
  0
LINE
  5
89
100
AcDbEntity
  8
LAY-3
  6
CONTINUOUS
 62
     3
100
AcDbLine
 10
267.0
 20
504.0
 30
0.0
 11
265.833333
 21
497.0
 31
0.0
  0
TEXT
  5
8A
100
AcDbEntity
  8
LAY-3
  6
CONTINUOUS
 62
     2
100
AcDbText
 10
254.3
 20
489.8
 30
0.0
 40
8.0
  1
２８
 50
90.0
 41
0.861
  7
EXCADSTD
 72
     5
 11
254.3
 21
504.83224
 31
0.0
100
AcDbText
  0
LINE
  5
8B
100
AcDbEntity
  8
LAY-3
  6
CONTINUOUS
 62
     3
100
AcDbLine
 10
255.0
 20
512.0
 30
0.0
 11
255.0
 21
484.0
 31
0.0
  0
LINE
  5
8C
100
AcDbEntity
  8
LAY-3
  6
CONTINUOUS
 62
     3
100
AcDbLine
 10
256.166667
 20
505.0
 30
0.0
 11
255.0
 21
512.0
 31
0.0
  0
LINE
  5
8D
100
AcDbEntity
  8
LAY-3
  6
CONTINUOUS
 62
     3
100
AcDbLine
 10
255.0
 20
512.0
 30
0.0
 11
253.833333
 21
505.0
 31
0.0
  0
LINE
  5
8E
100
AcDbEntity
  8
LAY-3
  6
CONTINUOUS
 62
     3
100
AcDbLine
 10
253.833333
 20
491.0
 30
0.0
 11
255.0
 21
484.0
 31
0.0
  0
LINE
  5
8F
100
AcDbEntity
  8
LAY-3
  6
CONTINUOUS
 62
     3
100
AcDbLine
 10
255.0
 20
484.0
 30
0.0
 11
256.166667
 21
491.0
 31
0.0
  0
TEXT
  5
90
100
AcDbEntity
  8
LAY-3
  6
CONTINUOUS
 62
     2
100
AcDbText
 10
285.8
 20
462.1
 30
0.0
 40
8.0
  1
３０
 41
0.861
  7
EXCADSTD
 72
     5
 11
300.83224
 21
462.1
 31
0.0
100
AcDbText
  0
LINE
  5
91
100
AcDbEntity
  8
LAY-3
  6
CONTINUOUS
 62
     3
100
AcDbLine
 10
279.0
 20
461.4
 30
0.0
 11
309.0
 21
461.4
 31
0.0
  0
LINE
  5
92
100
AcDbEntity
  8
LAY-3
  6
CONTINUOUS
 62
     3
100
AcDbLine
 10
286.0
 20
462.566667
 30
0.0
 11
279.0
 21
461.4
 31
0.0
  0
LINE
  5
93
100
AcDbEntity
  8
LAY-3
  6
CONTINUOUS
 62
     3
100
AcDbLine
 10
279.0
 20
461.4
 30
0.0
 11
286.0
 21
460.233333
 31
0.0
  0
LINE
  5
94
100
AcDbEntity
  8
LAY-3
  6
CONTINUOUS
 62
     3
100
AcDbLine
 10
302.0
 20
460.233333
 30
0.0
 11
309.0
 21
461.4
 31
0.0
  0
LINE
  5
95
100
AcDbEntity
  8
LAY-3
  6
CONTINUOUS
 62
     3
100
AcDbLine
 10
309.0
 20
461.4
 30
0.0
 11
302.0
 21
462.566667
 31
0.0
  0
TEXT
  5
96
100
AcDbEntity
  8
LAY-3
  6
CONTINUOUS
 62
     2
100
AcDbText
 10
305.4
 20
489.8
 30
0.0
 40
8.0
  1
１８
 50
90.0
 41
0.861
  7
EXCADSTD
 72
     5
 11
305.4
 21
504.83224
 31
0.0
100
AcDbText
  0
LINE
  5
97
100
AcDbEntity
  8
LAY-3
  6
CONTINUOUS
 62
     3
100
AcDbLine
 10
306.1
 20
507.0
 30
0.0
 11
306.1
 21
489.0
 31
0.0
  0
LINE
  5
98
100
AcDbEntity
  8
LAY-3
  6
CONTINUOUS
 62
     3
100
AcDbLine
 10
307.266667
 20
500.0
 30
0.0
 11
306.1
 21
507.0
 31
0.0
  0
LINE
  5
99
100
AcDbEntity
  8
LAY-3
  6
CONTINUOUS
 62
     3
100
AcDbLine
 10
306.1
 20
507.0
 30
0.0
 11
304.933333
 21
500.0
 31
0.0
  0
LINE
  5
9A
100
AcDbEntity
  8
LAY-3
  6
CONTINUOUS
 62
     3
100
AcDbLine
 10
304.933333
 20
496.0
 30
0.0
 11
306.1
 21
489.0
 31
0.0
  0
LINE
  5
9B
100
AcDbEntity
  8
LAY-3
  6
CONTINUOUS
 62
     3
100
AcDbLine
 10
306.1
 20
489.0
 30
0.0
 11
307.266667
 21
496.0
 31
0.0
  0
TEXT
  5
9C
100
AcDbEntity
  8
LAY-3
  6
CONTINUOUS
 62
     2
100
AcDbText
 10
305.4
 20
470.7
 30
0.0
 40
8.0
  1
５
 50
90.0
 41
0.945
  7
EXCADSTD
 72
     5
 11
305.4
 21
477.9
 31
0.0
100
AcDbText
  0
LINE
  5
9D
100
AcDbEntity
  8
LAY-3
  6
CONTINUOUS
 62
     3
100
AcDbLine
 10
306.1
 20
498.0
 30
0.0
 11
306.1
 21
472.4
 31
0.0
  0
LINE
  5
9E
100
AcDbEntity
  8
LAY-3
  6
CONTINUOUS
 62
     3
100
AcDbLine
 10
304.933333
 20
496.0
 30
0.0
 11
306.1
 21
489.0
 31
0.0
  0
LINE
  5
9F
100
AcDbEntity
  8
LAY-3
  6
CONTINUOUS
 62
     3
100
AcDbLine
 10
306.1
 20
489.0
 30
0.0
 11
307.266667
 21
496.0
 31
0.0
  0
LINE
  5
A0
100
AcDbEntity
  8
LAY-3
  6
CONTINUOUS
 62
     3
100
AcDbLine
 10
307.266667
 20
477.0
 30
0.0
 11
306.1
 21
484.0
 31
0.0
  0
LINE
  5
A1
100
AcDbEntity
  8
LAY-3
  6
CONTINUOUS
 62
     3
100
AcDbLine
 10
306.1
 20
484.0
 30
0.0
 11
304.933333
 21
477.0
 31
0.0
  0
TEXT
  5
A2
100
AcDbEntity
  8
LAY-3
  6
CONTINUOUS
 62
     2
100
AcDbText
 10
176.1
 20
523.7
 30
0.0
 40
8.0
  1
３０５
 41
0.833
  7
EXCADSTD
 72
     5
 11
199.9
 21
523.7
 31
0.0
100
AcDbText
  0
LINE
  5
A3
100
AcDbEntity
  8
LAY-3
  6
CONTINUOUS
 62
     3
100
AcDbLine
 10
54.0
 20
523.0
 30
0.0
 11
322.0
 21
523.0
 31
0.0
  0
LINE
  5
A4
100
AcDbEntity
  8
LAY-3
  6
CONTINUOUS
 62
     3
100
AcDbLine
 10
61.0
 20
524.166667
 30
0.0
 11
54.0
 21
523.0
 31
0.0
  0
LINE
  5
A5
100
AcDbEntity
  8
LAY-3
  6
CONTINUOUS
 62
     3
100
AcDbLine
 10
54.0
 20
523.0
 30
0.0
 11
61.0
 21
521.833333
 31
0.0
  0
LINE
  5
A6
100
AcDbEntity
  8
LAY-3
  6
CONTINUOUS
 62
     3
100
AcDbLine
 10
315.0
 20
521.833333
 30
0.0
 11
322.0
 21
523.0
 31
0.0
  0
LINE
  5
A7
100
AcDbEntity
  8
LAY-3
  6
CONTINUOUS
 62
     3
100
AcDbLine
 10
322.0
 20
523.0
 30
0.0
 11
315.0
 21
524.166667
 31
0.0
  0
TEXT
  5
A8
100
AcDbEntity
  8
LAY-3
  6
CONTINUOUS
 62
     2
100
AcDbText
 10
363.2
 20
274.7
 30
0.0
 40
8.0
  1
５
 41
0.945
  7
EXCADSTD
 72
     5
 11
370.4
 21
274.7
 31
0.0
100
AcDbText
  0
LINE
  5
A9
100
AcDbEntity
  8
LAY-3
  6
CONTINUOUS
 62
     3
100
AcDbLine
 10
343.0
 20
274.0
 30
0.0
 11
369.9
 21
274.0
 31
0.0
  0
LINE
  5
AA
100
AcDbEntity
  8
LAY-3
  6
CONTINUOUS
 62
     3
100
AcDbLine
 10
345.0
 20
272.833333
 30
0.0
 11
352.0
 21
274.0
 31
0.0
  0
LINE
  5
AB
100
AcDbEntity
  8
LAY-3
  6
CONTINUOUS
 62
     3
100
AcDbLine
 10
352.0
 20
274.0
 30
0.0
 11
345.0
 21
275.166667
 31
0.0
  0
LINE
  5
AC
100
AcDbEntity
  8
LAY-3
  6
CONTINUOUS
 62
     3
100
AcDbLine
 10
364.0
 20
275.166667
 30
0.0
 11
357.0
 21
274.0
 31
0.0
  0
LINE
  5
AD
100
AcDbEntity
  8
LAY-3
  6
CONTINUOUS
 62
     3
100
AcDbLine
 10
357.0
 20
274.0
 30
0.0
 11
364.0
 21
272.833333
 31
0.0
  0
TEXT
  5
AE
100
AcDbEntity
  8
LAY-3
  6
CONTINUOUS
 62
     2
100
AcDbText
 10
337.3
 20
296.1
 30
0.0
 40
8.0
  1
４０６
 50
90.0
 41
0.833
  7
EXCADSTD
 72
     5
 11
337.3
 21
319.9
 31
0.0
100
AcDbText
  0
LINE
  5
AF
100
AcDbEntity
  8
LAY-3
  6
CONTINUOUS
 62
     3
100
AcDbLine
 10
338.0
 20
511.0
 30
0.0
 11
338.0
 21
105.0
 31
0.0
  0
LINE
  5
B0
100
AcDbEntity
  8
LAY-3
  6
CONTINUOUS
 62
     3
100
AcDbLine
 10
339.166667
 20
504.0
 30
0.0
 11
338.0
 21
511.0
 31
0.0
  0
LINE
  5
B1
100
AcDbEntity
  8
LAY-3
  6
CONTINUOUS
 62
     3
100
AcDbLine
 10
338.0
 20
511.0
 30
0.0
 11
336.833333
 21
504.0
 31
0.0
  0
LINE
  5
B2
100
AcDbEntity
  8
LAY-3
  6
CONTINUOUS
 62
     3
100
AcDbLine
 10
336.833333
 20
112.0
 30
0.0
 11
338.0
 21
105.0
 31
0.0
  0
LINE
  5
B3
100
AcDbEntity
  8
LAY-3
  6
CONTINUOUS
 62
     3
100
AcDbLine
 10
338.0
 20
105.0
 30
0.0
 11
339.166667
 21
112.0
 31
0.0
  0
LINE
  5
B4
100
AcDbEntity
  8
LAY-3
  6
CONTINUOUS
 62
     3
100
AcDbLine
 10
309.74
 20
489.0
 30
0.0
 11
294.0
 21
489.0
 31
0.0
  0
LINE
  5
B5
100
AcDbEntity
  8
LAY-3
  6
CONTINUOUS
 62
     6
100
AcDbLine
 10
294.0
 20
499.1
 30
0.0
 11
294.0
 21
510.5
 31
0.0
  0
LINE
  5
B6
100
AcDbEntity
  8
LAY-3
  6
CONTINUOUS
 62
     6
100
AcDbLine
 10
294.0
 20
487.0
 30
0.0
 11
294.0
 21
492.7
 31
0.0
  0
LINE
  5
B7
100
AcDbEntity
  8
LAY-3
  6
CONTINUOUS
 62
     6
100
AcDbLine
 10
294.0
 20
495.1
 30
0.0
 11
294.0
 21
496.7
 31
0.0
  0
LINE
  5
B8
100
AcDbEntity
  8
LAY-3
  6
CONTINUOUS
 62
     6
100
AcDbLine
 10
294.0
 20
116.6
 30
0.0
 11
294.0
 21
128.0
 31
0.0
  0
LINE
  5
B9
100
AcDbEntity
  8
LAY-3
  6
CONTINUOUS
 62
     6
100
AcDbLine
 10
294.0
 20
104.5
 30
0.0
 11
294.0
 21
110.2
 31
0.0
  0
LINE
  5
BA
100
AcDbEntity
  8
LAY-3
  6
CONTINUOUS
 62
     6
100
AcDbLine
 10
294.0
 20
112.6
 30
0.0
 11
294.0
 21
114.2
 31
0.0
  0
LINE
  5
BB
100
AcDbEntity
  8
LAY-3
  6
CONTINUOUS
 62
     6
100
AcDbLine
 10
82.0
 20
116.6
 30
0.0
 11
82.0
 21
128.0
 31
0.0
  0
LINE
  5
BC
100
AcDbEntity
  8
LAY-3
  6
CONTINUOUS
 62
     6
100
AcDbLine
 10
82.0
 20
104.5
 30
0.0
 11
82.0
 21
110.2
 31
0.0
  0
LINE
  5
BD
100
AcDbEntity
  8
LAY-3
  6
CONTINUOUS
 62
     6
100
AcDbLine
 10
82.0
 20
112.6
 30
0.0
 11
82.0
 21
114.2
 31
0.0
  0
LINE
  5
BE
100
AcDbEntity
  8
_
  6
EXLTYPE2
 62
     7
100
AcDbLine
 10
34.0
 20
297.0
 30
0.0
 11
-4.0
 21
297.0
 31
0.0
  0
LINE
  5
BF
100
AcDbEntity
  8
_
  6
CONTINUOUS
 62
     7
100
AcDbLine
 10
36.0
 20
17.0
 30
0.0
 11
400.0
 21
17.0
 31
0.0
  0
LINE
  5
C0
100
AcDbEntity
  8
_
  6
CONTINUOUS
 62
     7
100
AcDbLine
 10
400.0
 20
17.0
 30
0.0
 11
400.0
 21
577.0
 31
0.0
  0
LINE
  5
C1
100
AcDbEntity
  8
_
  6
CONTINUOUS
 62
     7
100
AcDbLine
 10
36.0
 20
17.0
 30
0.0
 11
36.0
 21
577.0
 31
0.0
  0
LINE
  5
C2
100
AcDbEntity
  8
_
  6
CONTINUOUS
 62
     7
100
AcDbLine
 10
36.0
 20
577.0
 30
0.0
 11
400.0
 21
577.0
 31
0.0
  0
LINE
  5
C3
100
AcDbEntity
  8
_
  6
CONTINUOUS
 62
     7
100
AcDbLine
 10
36.0
 20
61.0
 30
0.0
 11
400.0
 21
61.0
 31
0.0
  0
LINE
  5
C4
100
AcDbEntity
  8
_
  6
CONTINUOUS
 62
     6
100
AcDbLine
 10
372.0
 20
61.0
 30
0.0
 11
372.0
 21
37.0
 31
0.0
  0
LINE
  5
C5
100
AcDbEntity
  8
_
  6
CONTINUOUS
 62
     6
100
AcDbLine
 10
362.0
 20
61.0
 30
0.0
 11
362.0
 21
37.0
 31
0.0
  0
LINE
  5
C6
100
AcDbEntity
  8
_
  6
CONTINUOUS
 62
     6
100
AcDbLine
 10
288.0
 20
61.0
 30
0.0
 11
288.0
 21
17.0
 31
0.0
  0
LINE
  5
C7
100
AcDbEntity
  8
_
  6
CONTINUOUS
 62
     6
100
AcDbLine
 10
278.0
 20
61.0
 30
0.0
 11
278.0
 21
17.0
 31
0.0
  0
LINE
  5
C8
100
AcDbEntity
  8
_
  6
CONTINUOUS
 62
     6
100
AcDbLine
 10
160.0
 20
61.0
 30
0.0
 11
160.0
 21
37.0
 31
0.0
  0
LINE
  5
C9
100
AcDbEntity
  8
_
  6
CONTINUOUS
 62
     6
100
AcDbLine
 10
150.0
 20
61.0
 30
0.0
 11
150.0
 21
17.0
 31
0.0
  0
LINE
  5
CA
100
AcDbEntity
  8
_
  6
CONTINUOUS
 62
     6
100
AcDbLine
 10
124.0
 20
61.0
 30
0.0
 11
124.0
 21
17.0
 31
0.0
  0
LINE
  5
CB
100
AcDbEntity
  8
_
  6
CONTINUOUS
 62
     6
100
AcDbLine
 10
98.0
 20
61.0
 30
0.0
 11
98.0
 21
17.0
 31
0.0
  0
LINE
  5
CC
100
AcDbEntity
  8
_
  6
CONTINUOUS
 62
     6
100
AcDbLine
 10
67.0
 20
61.0
 30
0.0
 11
67.0
 21
17.0
 31
0.0
  0
LINE
  5
CD
100
AcDbEntity
  8
_
  6
CONTINUOUS
 62
     6
100
AcDbLine
 10
36.0
 20
51.0
 30
0.0
 11
150.0
 21
51.0
 31
0.0
  0
LINE
  5
CE
100
AcDbEntity
  8
_
  6
CONTINUOUS
 62
     6
100
AcDbLine
 10
378.530762
 20
41.600586
 30
0.0
 11
393.998779
 21
57.339966
 31
0.0
  0
LINE
  5
CF
100
AcDbEntity
  8
_
  6
EXLTYPE2
 62
     6
100
AcDbLine
 10
36.0
 20
27.0
 30
0.0
 11
98.0
 21
27.0
 31
0.0
  0
CIRCLE
  5
D0
100
AcDbEntity
  8
_
  6
CONTINUOUS
 62
     6
100
AcDbCircle
 10
46.0
 20
22.0
 30
0.0
 40
0.2
  0
CIRCLE
  5
D1
100
AcDbEntity
  8
_
  6
CONTINUOUS
 62
     6
100
AcDbCircle
 10
56.0
 20
22.0
 30
0.0
 40
0.2
  0
CIRCLE
  5
D2
100
AcDbEntity
  8
_
  6
CONTINUOUS
 62
     6
100
AcDbCircle
 10
77.0
 20
22.0
 30
0.0
 40
0.2
  0
CIRCLE
  5
D3
100
AcDbEntity
  8
_
  6
CONTINUOUS
 62
     6
100
AcDbCircle
 10
87.0
 20
22.0
 30
0.0
 40
0.2
  0
LINE
  5
D4
100
AcDbEntity
  8
_
  6
EXLTYPE2
 62
     7
100
AcDbLine
 10
34.0
 20
297.0
 30
0.0
 11
-4.0
 21
297.0
 31
0.0
  0
LINE
  5
D5
100
AcDbEntity
  8
_
  6
CONTINUOUS
 62
     7
100
AcDbLine
 10
416.0
 20
0.0
 30
0.0
 11
406.0
 21
0.0
 31
0.0
  0
LINE
  5
D6
100
AcDbEntity
  8
_
  6
CONTINUOUS
 62
     7
100
AcDbLine
 10
416.0
 20
0.0
 30
0.0
 11
416.0
 21
10.0
 31
0.0
  0
LINE
  5
D7
100
AcDbEntity
  8
_
  6
CONTINUOUS
 62
     7
100
AcDbLine
 10
416.0
 20
594.0
 30
0.0
 11
406.0
 21
594.0
 31
0.0
  0
LINE
  5
D8
100
AcDbEntity
  8
_
  6
CONTINUOUS
 62
     7
100
AcDbLine
 10
416.0
 20
594.0
 30
0.0
 11
416.0
 21
584.0
 31
0.0
  0
LINE
  5
D9
100
AcDbEntity
  8
_
  6
CONTINUOUS
 62
     7
100
AcDbLine
 10
-4.0
 20
594.0
 30
0.0
 11
6.0
 21
594.0
 31
0.0
  0
LINE
  5
DA
100
AcDbEntity
  8
_
  6
CONTINUOUS
 62
     7
100
AcDbLine
 10
-4.0
 20
594.0
 30
0.0
 11
-4.0
 21
584.0
 31
0.0
  0
TEXT
  5
DB
100
AcDbEntity
  8
_
  6
CONTINUOUS
 62
     2
100
AcDbText
 10
378.107422
 20
50.544556
 30
0.0
 40
6.0
  1
１
 41
0.826
  7
EXCADSTD
 72
     5
 11
382.827422
 21
50.544556
 31
0.0
100
AcDbText
  0
TEXT
  5
DC
100
AcDbEntity
  8
_
  6
CONTINUOUS
 62
     2
100
AcDbText
 10
388.055859
 20
41.469769
 30
0.0
 40
6.0
  1
２
 41
0.826
  7
EXCADSTD
 72
     5
 11
392.775859
 21
41.469769
 31
0.0
100
AcDbText
  0
TEXT
  5
DD
100
AcDbEntity
  8
_
  6
CONTINUOUS
 62
     2
100
AcDbText
 10
40.5
 20
51.75
 30
0.0
 40
8.5
  1
製図
 41
1.087059
  7
EXCADSTD
 72
     5
 11
60.6652
 21
51.75
 31
0.0
100
AcDbText
  0
TEXT
  5
DE
100
AcDbEntity
  8
_
  6
CONTINUOUS
 62
     2
100
AcDbText
 10
71.5
 20
51.75
 30
0.0
 40
8.5
  1
写図
 41
1.087059
  7
EXCADSTD
 72
     5
 11
91.6652
 21
51.75
 31
0.0
100
AcDbText
  0
TEXT
  5
DF
100
AcDbEntity
  8
_
  6
CONTINUOUS
 62
     2
100
AcDbText
 10
101.5
 20
51.75
 30
0.0
 40
8.5
  1
検図
 41
0.938824
  7
EXCADSTD
 72
     5
 11
118.9154
 21
51.75
 31
0.0
100
AcDbText
  0
TEXT
  5
E0
100
AcDbEntity
  8
_
  6
CONTINUOUS
 62
     2
100
AcDbText
 10
127.5
 20
51.75
 30
0.0
 40
8.5
  1
承認
 41
0.938824
  7
EXCADSTD
 72
     5
 11
144.9154
 21
51.75
 31
0.0
100
AcDbText
  0
TEXT
  5
E1
100
AcDbEntity
  8
_
  6
CONTINUOUS
 62
     2
100
AcDbText
 10
150.75
 20
49.75
 30
0.0
 40
8.5
  1
品
 41
0.84
  7
EXCADSTD
 72
     5
 11
157.55
 21
49.75
 31
0.0
100
AcDbText
  0
TEXT
  5
E2
100
AcDbEntity
  8
_
  6
CONTINUOUS
 62
     2
100
AcDbText
 10
150.75
 20
39.75
 30
0.0
 40
8.5
  1
名
 41
0.84
  7
EXCADSTD
 72
     5
 11
157.55
 21
39.75
 31
0.0
100
AcDbText
  0
TEXT
  5
E3
100
AcDbEntity
  8
_
  6
CONTINUOUS
 62
     2
100
AcDbText
 10
278.75
 20
49.75
 30
0.0
 40
8.5
  1
品
 41
0.84
  7
EXCADSTD
 72
     5
 11
285.55
 21
49.75
 31
0.0
100
AcDbText
  0
TEXT
  5
E4
100
AcDbEntity
  8
_
  6
CONTINUOUS
 62
     2
100
AcDbText
 10
278.75
 20
39.75
 30
0.0
 40
8.5
  1
番
 41
0.84
  7
EXCADSTD
 72
     5
 11
285.55
 21
39.75
 31
0.0
100
AcDbText
  0
TEXT
  5
E5
100
AcDbEntity
  8
_
  6
CONTINUOUS
 62
     2
100
AcDbText
 10
362.75
 20
49.75
 30
0.0
 40
8.5
  1
尺
 41
0.84
  7
EXCADSTD
 72
     5
 11
369.55
 21
49.75
 31
0.0
100
AcDbText
  0
TEXT
  5
E6
100
AcDbEntity
  8
_
  6
CONTINUOUS
 62
     2
100
AcDbText
 10
362.75
 20
39.75
 30
0.0
 40
8.5
  1
度
 41
0.84
  7
EXCADSTD
 72
     5
 11
369.55
 21
39.75
 31
0.0
100
AcDbText
  0
TEXT
  5
E7
100
AcDbEntity
  8
_
  6
CONTINUOUS
 62
     2
100
AcDbText
 10
278.75
 20
27.15
 30
0.0
 40
8.5
  1
図
 41
0.84
  7
EXCADSTD
 72
     5
 11
285.55
 21
27.15
 31
0.0
100
AcDbText
  0
TEXT
  5
E8
100
AcDbEntity
  8
_
  6
CONTINUOUS
 62
     2
100
AcDbText
 10
278.75
 20
18.55
 30
0.0
 40
8.5
  1
番
 41
0.84
  7
EXCADSTD
 72
     5
 11
285.55
 21
18.55
 31
0.0
100
AcDbText
  0
LINE
  5
E9
100
AcDbEntity
  8
_
  6
CONTINUOUS
 62
     3
100
AcDbLine
 10
165.489551
 20
30.057599
 30
0.0
 11
163.876819
 21
30.057599
 31
0.0
  0
LINE
  5
EA
100
AcDbEntity
  8
_
  6
CONTINUOUS
 62
     3
100
AcDbLine
 10
165.489551
 20
31.670392
 30
0.0
 11
165.489551
 21
30.057599
 31
0.0
  0
LINE
  5
EB
100
AcDbEntity
  8
_
  6
CONTINUOUS
 62
     3
100
AcDbLine
 10
163.876819
 20
31.670392
 30
0.0
 11
165.489551
 21
31.670392
 31
0.0
  0
LINE
  5
EC
100
AcDbEntity
  8
_
  6
CONTINUOUS
 62
     3
100
AcDbLine
 10
163.876819
 20
31.670392
 30
0.0
 11
163.876819
 21
30.057599
 31
0.0
  0
LINE
  5
ED
100
AcDbEntity
  8
_
  6
CONTINUOUS
 62
     3
100
AcDbLine
 10
163.271838
 20
30.057599
 30
0.0
 11
161.659106
 21
30.057599
 31
0.0
  0
LINE
  5
EE
100
AcDbEntity
  8
_
  6
CONTINUOUS
 62
     3
100
AcDbLine
 10
163.271838
 20
31.670392
 30
0.0
 11
163.271838
 21
30.057599
 31
0.0
  0
LINE
  5
EF
100
AcDbEntity
  8
_
  6
CONTINUOUS
 62
     3
100
AcDbLine
 10
161.659106
 20
31.670392
 30
0.0
 11
163.271838
 21
31.670392
 31
0.0
  0
LINE
  5
F0
100
AcDbEntity
  8
_
  6
CONTINUOUS
 62
     3
100
AcDbLine
 10
161.659106
 20
31.670392
 30
0.0
 11
161.659106
 21
30.057599
 31
0.0
  0
LINE
  5
F1
100
AcDbEntity
  8
_
  6
CONTINUOUS
 62
     3
100
AcDbLine
 10
159.977466
 20
22.8
 30
0.0
 11
154.2
 21
22.8
 31
0.0
  0
ARC
  5
F2
100
AcDbEntity
  8
_
  6
CONTINUOUS
 62
     3
100
AcDbCircle
 10
159.977466
 20
26.428815
 30
0.0
 40
3.628799
100
AcDbArc
 50
270.000031
 51
334.000137
  0
LINE
  5
F3
100
AcDbEntity
  8
_
  6
CONTINUOUS
 62
     3
100
AcDbLine
 10
165.489551
 20
29.452802
 30
0.0
 11
163.238605
 21
24.838025
 31
0.0
  0
LINE
  5
F4
100
AcDbEntity
  8
_
  6
CONTINUOUS
 62
     3
100
AcDbLine
 10
163.022449
 20
29.452802
 30
0.0
 11
165.489551
 21
29.452802
 31
0.0
  0
LINE
  5
F5
100
AcDbEntity
  8
_
  6
CONTINUOUS
 62
     3
100
AcDbLine
 10
161.202594
 20
25.721814
 30
0.0
 11
163.022449
 21
29.452802
 31
0.0
  0
ARC
  5
F6
100
AcDbEntity
  8
_
  6
CONTINUOUS
 62
     3
100
AcDbCircle
 10
159.753101
 20
26.428815
 30
0.0
 40
1.6128
100
AcDbArc
 50
270.000031
 51
333.99855
  0
LINE
  5
F7
100
AcDbEntity
  8
_
  6
CONTINUOUS
 62
     3
100
AcDbLine
 10
154.2
 20
24.815991
 30
0.0
 11
159.753101
 21
24.815991
 31
0.0
  0
LINE
  5
F8
100
AcDbEntity
  8
_
  6
CONTINUOUS
 62
     3
100
AcDbLine
 10
154.2
 20
24.815991
 30
0.0
 11
154.2
 21
22.8
 31
0.0
  0
LINE
  5
F9
100
AcDbEntity
  8
_
  6
CONTINUOUS
 62
     3
100
AcDbLine
 10
159.844989
 20
27.43678
 30
0.0
 11
154.2
 21
27.43678
 31
0.0
  0
LINE
  5
FA
100
AcDbEntity
  8
_
  6
CONTINUOUS
 62
     3
100
AcDbLine
 10
159.844989
 20
29.251202
 30
0.0
 11
159.844989
 21
27.43678
 31
0.0
  0
LINE
  5
FB
100
AcDbEntity
  8
_
  6
CONTINUOUS
 62
     3
100
AcDbLine
 10
154.2
 20
29.251202
 30
0.0
 11
159.844989
 21
29.251202
 31
0.0
  0
LINE
  5
FC
100
AcDbEntity
  8
_
  6
CONTINUOUS
 62
     3
100
AcDbLine
 10
154.2
 20
29.251202
 30
0.0
 11
154.2
 21
27.43678
 31
0.0
  0
LINE
  5
FD
100
AcDbEntity
  8
_
  6
CONTINUOUS
 62
     3
100
AcDbLine
 10
159.844989
 20
29.856
 30
0.0
 11
154.2
 21
29.856
 31
0.0
  0
LINE
  5
FE
100
AcDbEntity
  8
_
  6
CONTINUOUS
 62
     3
100
AcDbLine
 10
159.844989
 20
31.670392
 30
0.0
 11
159.844989
 21
29.856
 31
0.0
  0
LINE
  5
FF
100
AcDbEntity
  8
_
  6
CONTINUOUS
 62
     3
100
AcDbLine
 10
154.2
 20
31.670392
 30
0.0
 11
159.844989
 21
31.670392
 31
0.0
  0
LINE
  5
100
100
AcDbEntity
  8
_
  6
CONTINUOUS
 62
     3
100
AcDbLine
 10
154.2
 20
31.670392
 30
0.0
 11
154.2
 21
29.856
 31
0.0
  0
LINE
  5
101
100
AcDbEntity
  8
_
  6
CONTINUOUS
 62
     3
100
AcDbLine
 10
166.094531
 20
29.452802
 30
0.0
 11
166.094531
 21
28.041577
 31
0.0
  0
LINE
  5
102
100
AcDbEntity
  8
_
  6
CONTINUOUS
 62
     3
100
AcDbLine
 10
166.094531
 20
29.452802
 30
0.0
 11
167.930804
 21
29.452802
 31
0.0
  0
LINE
  5
103
100
AcDbEntity
  8
_
  6
CONTINUOUS
 62
     3
100
AcDbLine
 10
167.707263
 20
30.863995
 30
0.0
 11
167.930804
 21
29.452802
 31
0.0
  0
LINE
  5
104
100
AcDbEntity
  8
_
  6
CONTINUOUS
 62
     3
100
AcDbLine
 10
167.707263
 20
30.863995
 30
0.0
 11
169.952472
 21
30.863995
 31
0.0
  0
LINE
  5
105
100
AcDbEntity
  8
_
  6
CONTINUOUS
 62
     3
100
AcDbLine
 10
169.952472
 20
30.863995
 30
0.0
 11
170.175983
 21
29.452802
 31
0.0
  0
LINE
  5
106
100
AcDbEntity
  8
_
  6
CONTINUOUS
 62
     3
100
AcDbLine
 10
170.175983
 20
29.452802
 30
0.0
 11
175.77135
 21
29.452802
 31
0.0
  0
LINE
  5
107
100
AcDbEntity
  8
_
  6
CONTINUOUS
 62
     3
100
AcDbLine
 10
175.77135
 20
29.452802
 30
0.0
 11
174.594623
 21
26.810101
 31
0.0
  0
ARC
  5
108
100
AcDbEntity
  8
_
  6
CONTINUOUS
 62
     3
100
AcDbCircle
 10
171.832202
 20
28.040082
 30
0.0
 40
3.024021
100
AcDbArc
 50
263.465775
 51
335.998779
  0
LINE
  5
109
100
AcDbEntity
  8
_
  6
CONTINUOUS
 62
     3
100
AcDbLine
 10
171.487689
 20
25.035718
 30
0.0
 11
171.267413
 21
26.428815
 31
0.0
  0
ARC
  5
10A
100
AcDbEntity
  8
_
  6
CONTINUOUS
 62
     3
100
AcDbCircle
 10
171.211627
 20
27.638409
 30
0.0
 40
1.209601
100
AcDbArc
 50
272.623749
 51
336.006531
  0
LINE
  5
10B
100
AcDbEntity
  8
_
  6
CONTINUOUS
 62
     3
100
AcDbLine
 10
172.317004
 20
27.146405
 30
0.0
 11
172.715259
 21
28.041577
 31
0.0
  0
LINE
  5
10C
100
AcDbEntity
  8
_
  6
CONTINUOUS
 62
     3
100
AcDbLine
 10
172.715259
 20
28.041577
 30
0.0
 11
170.399524
 21
28.041577
 31
0.0
  0
LINE
  5
10D
100
AcDbEntity
  8
_
  6
CONTINUOUS
 62
     3
100
AcDbLine
 10
170.399524
 20
28.041577
 30
0.0
 11
171.229694
 21
22.8
 31
0.0
  0
LINE
  5
10E
100
AcDbEntity
  8
_
  6
CONTINUOUS
 62
     3
100
AcDbLine
 10
171.229694
 20
22.8
 30
0.0
 11
168.984485
 21
22.8
 31
0.0
  0
LINE
  5
10F
100
AcDbEntity
  8
_
  6
CONTINUOUS
 62
     2
100
AcDbLine
 10
168.984485
 20
22.8
 30
0.0
 11
168.154346
 21
28.041577
 31
0.0
  0
LINE
  5
110
100
AcDbEntity
  8
_
  6
CONTINUOUS
 62
     2
100
AcDbLine
 10
168.154346
 20
28.041577
 30
0.0
 11
166.094531
 21
28.041577
 31
0.0
  0
LINE
  5
111
100
AcDbEntity
  8
_
  6
CONTINUOUS
 62
     3
100
AcDbLine
 10
175.569537
 20
22.8
 30
0.0
 11
175.569537
 21
24.815991
 31
0.0
  0
LINE
  5
112
100
AcDbEntity
  8
_
  6
CONTINUOUS
 62
     3
100
AcDbLine
 10
175.569537
 20
24.815991
 30
0.0
 11
186.859088
 21
24.815991
 31
0.0
  0
LINE
  5
113
100
AcDbEntity
  8
_
  6
CONTINUOUS
 62
     3
100
AcDbLine
 10
186.859088
 20
24.815991
 30
0.0
 11
186.859088
 21
22.8
 31
0.0
  0
LINE
  5
114
100
AcDbEntity
  8
_
  6
CONTINUOUS
 62
     3
100
AcDbLine
 10
186.859088
 20
22.8
 30
0.0
 11
175.569537
 21
22.8
 31
0.0
  0
LINE
  5
115
100
AcDbEntity
  8
_
  6
CONTINUOUS
 62
     3
100
AcDbLine
 10
176.375903
 20
31.670392
 30
0.0
 11
176.375903
 21
29.654401
 31
0.0
  0
LINE
  5
116
100
AcDbEntity
  8
_
  6
CONTINUOUS
 62
     3
100
AcDbLine
 10
176.375903
 20
31.670392
 30
0.0
 11
186.052722
 21
31.670392
 31
0.0
  0
LINE
  5
117
100
AcDbEntity
  8
_
  6
CONTINUOUS
 62
     3
100
AcDbLine
 10
186.052722
 20
31.670392
 30
0.0
 11
186.052722
 21
29.654401
 31
0.0
  0
LINE
  5
118
100
AcDbEntity
  8
_
  6
CONTINUOUS
 62
     3
100
AcDbLine
 10
186.052722
 20
29.654401
 30
0.0
 11
176.375903
 21
29.654401
 31
0.0
  0
LINE
  5
119
100
AcDbEntity
  8
_
  6
CONTINUOUS
 62
     3
100
AcDbLine
 10
188.270435
 20
31.670392
 30
0.0
 11
188.270435
 21
29.654401
 31
0.0
  0
LINE
  5
11A
100
AcDbEntity
  8
_
  6
CONTINUOUS
 62
     3
100
AcDbLine
 10
188.270435
 20
31.670392
 30
0.0
 11
198.753619
 21
31.670392
 31
0.0
  0
LINE
  5
11B
100
AcDbEntity
  8
_
  6
CONTINUOUS
 62
     3
100
AcDbLine
 10
198.753619
 20
31.670392
 30
0.0
 11
195.610187
 21
27.343793
 31
0.0
  0
LINE
  5
11C
100
AcDbEntity
  8
_
  6
CONTINUOUS
 62
     3
100
AcDbLine
 10
195.610187
 20
27.343793
 30
0.0
 11
199.559985
 21
22.8
 31
0.0
  0
LINE
  5
11D
100
AcDbEntity
  8
_
  6
CONTINUOUS
 62
     3
100
AcDbLine
 10
199.559985
 20
22.8
 30
0.0
 11
196.621631
 21
22.8
 31
0.0
  0
LINE
  5
11E
100
AcDbEntity
  8
_
  6
CONTINUOUS
 62
     3
100
AcDbLine
 10
196.621631
 20
22.8
 30
0.0
 11
194.272266
 21
25.502545
 31
0.0
  0
LINE
  5
11F
100
AcDbEntity
  8
_
  6
CONTINUOUS
 62
     3
100
AcDbLine
 10
194.272266
 20
25.502545
 30
0.0
 11
193.39577
 21
24.29585
 31
0.0
  0
ARC
  5
120
100
AcDbEntity
  8
_
  6
CONTINUOUS
 62
     3
100
AcDbCircle
 10
190.459857
 20
26.428815
 30
0.0
 40
3.628799
100
AcDbArc
 50
270.000031
 51
324.00116
  0
LINE
  5
121
100
AcDbEntity
  8
_
  6
CONTINUOUS
 62
     3
100
AcDbLine
 10
190.459857
 20
22.8
 30
0.0
 11
187.464069
 21
22.8
 31
0.0
  0
LINE
  5
122
100
AcDbEntity
  8
_
  6
CONTINUOUS
 62
     3
100
AcDbLine
 10
187.464069
 20
22.8
 30
0.0
 11
187.464069
 21
24.815991
 31
0.0
  0
LINE
  5
123
100
AcDbEntity
  8
_
  6
CONTINUOUS
 62
     3
100
AcDbLine
 10
187.464069
 20
24.815991
 30
0.0
 11
190.00542
 21
24.815991
 31
0.0
  0
ARC
  5
124
100
AcDbEntity
  8
_
  6
CONTINUOUS
 62
     3
100
AcDbCircle
 10
190.00542
 20
26.831982
 30
0.0
 40
2.015999
100
AcDbArc
 50
270.000031
 51
323.996597
  0
LINE
  5
125
100
AcDbEntity
  8
_
  6
CONTINUOUS
 62
     3
100
AcDbLine
 10
191.636188
 20
25.647015
 30
0.0
 11
194.5479
 21
29.654401
 31
0.0
  0
LINE
  5
126
100
AcDbEntity
  8
_
  6
CONTINUOUS
 62
     3
100
AcDbLine
 10
194.5479
 20
29.654401
 30
0.0
 11
188.270435
 21
29.654401
 31
0.0
  0
LINE
  5
127
100
AcDbEntity
  8
_
  6
CONTINUOUS
 62
     3
100
AcDbLine
 10
201.979114
 20
31.670392
 30
0.0
 11
201.979114
 21
30.259198
 31
0.0
  0
LINE
  5
128
100
AcDbEntity
  8
_
  6
CONTINUOUS
 62
     3
100
AcDbLine
 10
201.979114
 20
31.670392
 30
0.0
 11
212.462268
 21
31.670392
 31
0.0
  0
LINE
  5
129
100
AcDbEntity
  8
_
  6
CONTINUOUS
 62
     3
100
AcDbLine
 10
212.462268
 20
31.670392
 30
0.0
 11
212.462268
 21
30.259198
 31
0.0
  0
LINE
  5
12A
100
AcDbEntity
  8
_
  6
CONTINUOUS
 62
     3
100
AcDbLine
 10
212.462268
 20
30.259198
 30
0.0
 11
208.329547
 21
30.259198
 31
0.0
  0
LINE
  5
12B
100
AcDbEntity
  8
_
  6
CONTINUOUS
 62
     3
100
AcDbLine
 10
208.329547
 20
30.259198
 30
0.0
 11
208.329547
 21
24.412823
 31
0.0
  0
LINE
  5
12C
100
AcDbEntity
  8
_
  6
CONTINUOUS
 62
     3
100
AcDbLine
 10
208.329547
 20
24.412823
 30
0.0
 11
212.865466
 21
24.412823
 31
0.0
  0
LINE
  5
12D
100
AcDbEntity
  8
_
  6
CONTINUOUS
 62
     3
100
AcDbLine
 10
212.865466
 20
24.412823
 30
0.0
 11
212.865466
 21
22.8
 31
0.0
  0
LINE
  5
12E
100
AcDbEntity
  8
_
  6
CONTINUOUS
 62
     3
100
AcDbLine
 10
212.865466
 20
22.8
 30
0.0
 11
201.575916
 21
22.8
 31
0.0
  0
LINE
  5
12F
100
AcDbEntity
  8
_
  6
CONTINUOUS
 62
     3
100
AcDbLine
 10
201.575916
 20
22.8
 30
0.0
 11
201.575916
 21
24.412823
 31
0.0
  0
LINE
  5
130
100
AcDbEntity
  8
_
  6
CONTINUOUS
 62
     3
100
AcDbLine
 10
201.575916
 20
24.412823
 30
0.0
 11
206.111835
 21
24.412823
 31
0.0
  0
LINE
  5
131
100
AcDbEntity
  8
_
  6
CONTINUOUS
 62
     3
100
AcDbLine
 10
206.111835
 20
24.412823
 30
0.0
 11
206.111835
 21
30.259198
 31
0.0
  0
LINE
  5
132
100
AcDbEntity
  8
_
  6
CONTINUOUS
 62
     3
100
AcDbLine
 10
206.111835
 20
30.259198
 30
0.0
 11
201.979114
 21
30.259198
 31
0.0
  0
LINE
  5
133
100
AcDbEntity
  8
_
  6
CONTINUOUS
 62
     3
100
AcDbLine
 10
213.067249
 20
30.460797
 30
0.0
 11
213.067249
 21
29.533429
 31
0.0
  0
LINE
  5
134
100
AcDbEntity
  8
_
  6
CONTINUOUS
 62
     3
100
AcDbLine
 10
213.067249
 20
30.460797
 30
0.0
 11
214.818622
 21
30.460797
 31
0.0
  0
LINE
  5
135
100
AcDbEntity
  8
_
  6
CONTINUOUS
 62
     3
100
AcDbLine
 10
214.818622
 20
30.460797
 30
0.0
 11
213.873645
 21
31.670392
 31
0.0
  0
LINE
  5
136
100
AcDbEntity
  8
_
  6
CONTINUOUS
 62
     3
100
AcDbLine
 10
213.873645
 20
31.670392
 30
0.0
 11
215.664386
 21
31.670392
 31
0.0
  0
LINE
  5
137
100
AcDbEntity
  8
_
  6
CONTINUOUS
 62
     3
100
AcDbLine
 10
215.664386
 20
31.670392
 30
0.0
 11
216.609363
 21
30.460797
 31
0.0
  0
LINE
  5
138
100
AcDbEntity
  8
_
  6
CONTINUOUS
 62
     3
100
AcDbLine
 10
216.609363
 20
30.460797
 30
0.0
 11
216.998615
 21
30.460797
 31
0.0
  0
LINE
  5
139
100
AcDbEntity
  8
_
  6
CONTINUOUS
 62
     3
100
AcDbLine
 10
216.998615
 20
30.460797
 30
0.0
 11
216.998615
 21
31.670392
 31
0.0
  0
LINE
  5
13A
100
AcDbEntity
  8
_
  6
CONTINUOUS
 62
     3
100
AcDbLine
 10
216.998615
 20
31.670392
 30
0.0
 11
218.409534
 21
31.670392
 31
0.0
  0
LINE
  5
13B
100
AcDbEntity
  8
_
  6
CONTINUOUS
 62
     3
100
AcDbLine
 10
218.409534
 20
31.670392
 30
0.0
 11
218.409534
 21
30.460797
 31
0.0
  0
LINE
  5
13C
100
AcDbEntity
  8
_
  6
CONTINUOUS
 62
     3
100
AcDbLine
 10
218.409534
 20
30.460797
 30
0.0
 11
219.014514
 21
30.460797
 31
0.0
  0
LINE
  5
13D
100
AcDbEntity
  8
_
  6
CONTINUOUS
 62
     3
100
AcDbLine
 10
219.014514
 20
30.460797
 30
0.0
 11
219.014514
 21
31.670392
 31
0.0
  0
LINE
  5
13E
100
AcDbEntity
  8
_
  6
CONTINUOUS
 62
     3
100
AcDbLine
 10
219.014514
 20
31.670392
 30
0.0
 11
220.425464
 21
31.670392
 31
0.0
  0
LINE
  5
13F
100
AcDbEntity
  8
_
  6
CONTINUOUS
 62
     3
100
AcDbLine
 10
220.425464
 20
31.670392
 30
0.0
 11
220.425464
 21
30.460797
 31
0.0
  0
LINE
  5
140
100
AcDbEntity
  8
_
  6
CONTINUOUS
 62
     3
100
AcDbLine
 10
220.425464
 20
30.460797
 30
0.0
 11
220.814716
 21
30.460797
 31
0.0
  0
LINE
  5
141
100
AcDbEntity
  8
_
  6
CONTINUOUS
 62
     3
100
AcDbLine
 10
220.814716
 20
30.460797
 30
0.0
 11
221.759692
 21
31.670392
 31
0.0
  0
LINE
  5
142
100
AcDbEntity
  8
_
  6
CONTINUOUS
 62
     3
100
AcDbLine
 10
221.759692
 20
31.670392
 30
0.0
 11
223.550433
 21
31.670392
 31
0.0
  0
LINE
  5
143
100
AcDbEntity
  8
_
  6
CONTINUOUS
 62
     3
100
AcDbLine
 10
223.550433
 20
31.670392
 30
0.0
 11
222.605457
 21
30.460797
 31
0.0
  0
LINE
  5
144
100
AcDbEntity
  8
_
  6
CONTINUOUS
 62
     3
100
AcDbLine
 10
222.605457
 20
30.460797
 30
0.0
 11
224.356799
 21
30.460797
 31
0.0
  0
LINE
  5
145
100
AcDbEntity
  8
_
  6
CONTINUOUS
 62
     3
100
AcDbLine
 10
224.356799
 20
30.460797
 30
0.0
 11
224.356799
 21
29.533429
 31
0.0
  0
LINE
  5
146
100
AcDbEntity
  8
_
  6
CONTINUOUS
 62
     3
100
AcDbLine
 10
224.356799
 20
29.533429
 30
0.0
 11
222.232196
 21
29.533429
 31
0.0
  0
LINE
  5
147
100
AcDbEntity
  8
_
  6
CONTINUOUS
 62
     3
100
AcDbLine
 10
222.232196
 20
29.533429
 30
0.0
 11
221.865527
 21
28.525464
 31
0.0
  0
LINE
  5
148
100
AcDbEntity
  8
_
  6
CONTINUOUS
 62
     3
100
AcDbLine
 10
221.865527
 20
28.525464
 30
0.0
 11
224.356799
 21
28.525464
 31
0.0
  0
LINE
  5
149
100
AcDbEntity
  8
_
  6
CONTINUOUS
 62
     3
100
AcDbLine
 10
224.356799
 20
28.525464
 30
0.0
 11
224.356799
 21
27.598096
 31
0.0
  0
LINE
  5
14A
100
AcDbEntity
  8
_
  6
CONTINUOUS
 62
     3
100
AcDbLine
 10
224.356799
 20
27.598096
 30
0.0
 11
219.719989
 21
27.598096
 31
0.0
  0
LINE
  5
14B
100
AcDbEntity
  8
_
  6
CONTINUOUS
 62
     3
100
AcDbLine
 10
219.719989
 20
27.598096
 30
0.0
 11
219.719989
 21
27.134412
 31
0.0
  0
LINE
  5
14C
100
AcDbEntity
  8
_
  6
CONTINUOUS
 62
     3
100
AcDbLine
 10
219.719989
 20
27.134412
 30
0.0
 11
224.356799
 21
27.134412
 31
0.0
  0
LINE
  5
14D
100
AcDbEntity
  8
_
  6
CONTINUOUS
 62
     3
100
AcDbLine
 10
224.356799
 20
27.134412
 30
0.0
 11
224.356799
 21
26.207043
 31
0.0
  0
LINE
  5
14E
100
AcDbEntity
  8
_
  6
CONTINUOUS
 62
     3
100
AcDbLine
 10
224.356799
 20
26.207043
 30
0.0
 11
219.719989
 21
26.207043
 31
0.0
  0
LINE
  5
14F
100
AcDbEntity
  8
_
  6
CONTINUOUS
 62
     3
100
AcDbLine
 10
219.719989
 20
26.207043
 30
0.0
 11
219.719989
 21
25.743359
 31
0.0
  0
LINE
  5
150
100
AcDbEntity
  8
_
  6
CONTINUOUS
 62
     3
100
AcDbLine
 10
219.719989
 20
25.743359
 30
0.0
 11
224.356799
 21
25.743359
 31
0.0
  0
LINE
  5
151
100
AcDbEntity
  8
_
  6
CONTINUOUS
 62
     3
100
AcDbLine
 10
224.356799
 20
25.743359
 30
0.0
 11
224.356799
 21
24.815991
 31
0.0
  0
LINE
  5
152
100
AcDbEntity
  8
_
  6
CONTINUOUS
 62
     3
100
AcDbLine
 10
224.356799
 20
24.815991
 30
0.0
 11
222.125568
 21
24.815991
 31
0.0
  0
LINE
  5
153
100
AcDbEntity
  8
_
  6
CONTINUOUS
 62
     3
100
AcDbLine
 10
222.125568
 20
24.815991
 30
0.0
 11
224.356799
 21
22.8
 31
0.0
  0
LINE
  5
154
100
AcDbEntity
  8
_
  6
CONTINUOUS
 62
     3
100
AcDbLine
 10
224.356799
 20
22.8
 30
0.0
 11
221.951251
 21
22.8
 31
0.0
  0
LINE
  5
155
100
AcDbEntity
  8
_
  6
CONTINUOUS
 62
     3
100
AcDbLine
 10
221.951251
 20
22.8
 30
0.0
 11
219.719989
 21
24.815991
 31
0.0
  0
LINE
  5
156
100
AcDbEntity
  8
_
  6
CONTINUOUS
 62
     3
100
AcDbLine
 10
219.719989
 20
24.815991
 30
0.0
 11
219.719989
 21
22.8
 31
0.0
  0
LINE
  5
157
100
AcDbEntity
  8
_
  6
CONTINUOUS
 62
     3
100
AcDbLine
 10
219.719989
 20
22.8
 30
0.0
 11
217.704089
 21
22.8
 31
0.0
  0
LINE
  5
158
100
AcDbEntity
  8
_
  6
CONTINUOUS
 62
     3
100
AcDbLine
 10
217.704089
 20
22.8
 30
0.0
 11
217.704089
 21
24.815991
 31
0.0
  0
LINE
  5
159
100
AcDbEntity
  8
_
  6
CONTINUOUS
 62
     3
100
AcDbLine
 10
217.704089
 20
24.815991
 30
0.0
 11
215.472827
 21
22.8
 31
0.0
  0
LINE
  5
15A
100
AcDbEntity
  8
_
  6
CONTINUOUS
 62
     3
100
AcDbLine
 10
215.472827
 20
22.8
 30
0.0
 11
213.067249
 21
22.8
 31
0.0
  0
LINE
  5
15B
100
AcDbEntity
  8
_
  6
CONTINUOUS
 62
     3
100
AcDbLine
 10
213.067249
 20
22.8
 30
0.0
 11
215.298511
 21
24.815991
 31
0.0
  0
LINE
  5
15C
100
AcDbEntity
  8
_
  6
CONTINUOUS
 62
     3
100
AcDbLine
 10
215.298511
 20
24.815991
 30
0.0
 11
213.067249
 21
24.815991
 31
0.0
  0
LINE
  5
15D
100
AcDbEntity
  8
_
  6
CONTINUOUS
 62
     3
100
AcDbLine
 10
213.067249
 20
24.815991
 30
0.0
 11
213.067249
 21
25.743359
 31
0.0
  0
LINE
  5
15E
100
AcDbEntity
  8
_
  6
CONTINUOUS
 62
     3
100
AcDbLine
 10
213.067249
 20
25.743359
 30
0.0
 11
217.704089
 21
25.743359
 31
0.0
  0
LINE
  5
15F
100
AcDbEntity
  8
_
  6
CONTINUOUS
 62
     3
100
AcDbLine
 10
217.704089
 20
25.743359
 30
0.0
 11
217.704089
 21
26.207043
 31
0.0
  0
LINE
  5
160
100
AcDbEntity
  8
_
  6
CONTINUOUS
 62
     3
100
AcDbLine
 10
217.704089
 20
26.207043
 30
0.0
 11
213.067249
 21
26.207043
 31
0.0
  0
LINE
  5
161
100
AcDbEntity
  8
_
  6
CONTINUOUS
 62
     3
100
AcDbLine
 10
213.067249
 20
26.207043
 30
0.0
 11
213.067249
 21
27.134412
 31
0.0
  0
LINE
  5
162
100
AcDbEntity
  8
_
  6
CONTINUOUS
 62
     3
100
AcDbLine
 10
213.067249
 20
27.134412
 30
0.0
 11
217.704089
 21
27.134412
 31
0.0
  0
LINE
  5
163
100
AcDbEntity
  8
_
  6
CONTINUOUS
 62
     3
100
AcDbLine
 10
217.704089
 20
27.134412
 30
0.0
 11
217.704089
 21
27.598096
 31
0.0
  0
LINE
  5
164
100
AcDbEntity
  8
_
  6
CONTINUOUS
 62
     3
100
AcDbLine
 10
217.704089
 20
27.598096
 30
0.0
 11
213.067249
 21
27.598096
 31
0.0
  0
LINE
  5
165
100
AcDbEntity
  8
_
  6
CONTINUOUS
 62
     3
100
AcDbLine
 10
213.067249
 20
27.598096
 30
0.0
 11
213.067249
 21
28.525464
 31
0.0
  0
LINE
  5
166
100
AcDbEntity
  8
_
  6
CONTINUOUS
 62
     3
100
AcDbLine
 10
213.067249
 20
28.525464
 30
0.0
 11
215.558551
 21
28.525464
 31
0.0
  0
LINE
  5
167
100
AcDbEntity
  8
_
  6
CONTINUOUS
 62
     3
100
AcDbLine
 10
215.558551
 20
28.525464
 30
0.0
 11
215.191882
 21
29.533429
 31
0.0
  0
LINE
  5
168
100
AcDbEntity
  8
_
  6
CONTINUOUS
 62
     3
100
AcDbLine
 10
215.191882
 20
29.533429
 30
0.0
 11
213.067249
 21
29.533429
 31
0.0
  0
LINE
  5
169
100
AcDbEntity
  8
_
  6
CONTINUOUS
 62
     3
100
AcDbLine
 10
217.336993
 20
29.533429
 30
0.0
 11
220.087085
 21
29.533429
 31
0.0
  0
LINE
  5
16A
100
AcDbEntity
  8
_
  6
CONTINUOUS
 62
     3
100
AcDbLine
 10
220.087085
 20
29.533429
 30
0.0
 11
219.719989
 21
28.525464
 31
0.0
  0
LINE
  5
16B
100
AcDbEntity
  8
_
  6
CONTINUOUS
 62
     3
100
AcDbLine
 10
219.719989
 20
28.525464
 30
0.0
 11
217.704089
 21
28.525464
 31
0.0
  0
LINE
  5
16C
100
AcDbEntity
  8
_
  6
CONTINUOUS
 62
     3
100
AcDbLine
 10
217.704089
 20
28.525464
 30
0.0
 11
217.336993
 21
29.533429
 31
0.0
  0
LINE
  5
16D
100
AcDbEntity
  8
_
  6
CONTINUOUS
 62
     3
100
AcDbLine
 10
229.851276
 20
31.670392
 30
0.0
 11
229.197894
 21
29.049603
 31
0.0
  0
LINE
  5
16E
100
AcDbEntity
  8
_
  6
CONTINUOUS
 62
     3
100
AcDbLine
 10
229.851276
 20
31.670392
 30
0.0
 11
231.513629
 21
31.670392
 31
0.0
  0
LINE
  5
16F
100
AcDbEntity
  8
_
  6
CONTINUOUS
 62
     3
100
AcDbLine
 10
231.513629
 20
31.670392
 30
0.0
 11
231.262195
 21
30.662396
 31
0.0
  0
LINE
  5
170
100
AcDbEntity
  8
_
  6
CONTINUOUS
 62
     3
100
AcDbLine
 10
231.262195
 20
30.662396
 30
0.0
 11
231.916827
 21
30.662396
 31
0.0
  0
LINE
  5
171
100
AcDbEntity
  8
_
  6
CONTINUOUS
 62
     3
100
AcDbLine
 10
231.916827
 20
30.662396
 30
0.0
 11
231.916827
 21
31.670392
 31
0.0
  0
LINE
  5
172
100
AcDbEntity
  8
_
  6
CONTINUOUS
 62
     3
100
AcDbLine
 10
231.916827
 20
31.670392
 30
0.0
 11
233.731342
 21
31.670392
 31
0.0
  0
LINE
  5
173
100
AcDbEntity
  8
_
  6
CONTINUOUS
 62
     3
100
AcDbLine
 10
233.731342
 20
31.670392
 30
0.0
 11
233.731342
 21
30.662396
 31
0.0
  0
LINE
  5
174
100
AcDbEntity
  8
_
  6
CONTINUOUS
 62
     3
100
AcDbLine
 10
233.731342
 20
30.662396
 30
0.0
 11
236.049548
 21
30.662396
 31
0.0
  0
LINE
  5
175
100
AcDbEntity
  8
_
  6
CONTINUOUS
 62
     3
100
AcDbLine
 10
236.049548
 20
30.662396
 30
0.0
 11
236.049548
 21
29.654401
 31
0.0
  0
LINE
  5
176
100
AcDbEntity
  8
_
  6
CONTINUOUS
 62
     3
100
AcDbLine
 10
233.731342
 20
29.654401
 30
0.0
 11
236.049548
 21
29.654401
 31
0.0
  0
LINE
  5
177
100
AcDbEntity
  8
_
  6
CONTINUOUS
 62
     3
100
AcDbLine
 10
233.731342
 20
29.654401
 30
0.0
 11
233.731342
 21
28.646405
 31
0.0
  0
LINE
  5
178
100
AcDbEntity
  8
_
  6
CONTINUOUS
 62
     3
100
AcDbLine
 10
233.731342
 20
28.646405
 30
0.0
 11
236.251331
 21
28.646405
 31
0.0
  0
LINE
  5
179
100
AcDbEntity
  8
_
  6
CONTINUOUS
 62
     3
100
AcDbLine
 10
236.251331
 20
28.646405
 30
0.0
 11
236.251331
 21
27.638409
 31
0.0
  0
LINE
  5
17A
100
AcDbEntity
  8
_
  6
CONTINUOUS
 62
     3
100
AcDbLine
 10
236.251331
 20
27.638409
 30
0.0
 11
235.370319
 21
27.638409
 31
0.0
  0
LINE
  5
17B
100
AcDbEntity
  8
_
  6
CONTINUOUS
 62
     3
100
AcDbLine
 10
235.370319
 20
27.638409
 30
0.0
 11
236.251331
 21
22.8
 31
0.0
  0
LINE
  5
17C
100
AcDbEntity
  8
_
  6
CONTINUOUS
 62
     3
100
AcDbLine
 10
236.251331
 20
22.8
 30
0.0
 11
234.611957
 21
22.8
 31
0.0
  0
LINE
  5
17D
100
AcDbEntity
  8
_
  6
CONTINUOUS
 62
     3
100
AcDbLine
 10
234.611957
 20
22.8
 30
0.0
 11
233.731342
 21
27.638348
 31
0.0
  0
LINE
  5
17E
100
AcDbEntity
  8
_
  6
CONTINUOUS
 62
     3
100
AcDbLine
 10
233.731342
 20
27.638348
 30
0.0
 11
233.731342
 21
22.8
 31
0.0
  0
LINE
  5
17F
100
AcDbEntity
  8
_
  6
CONTINUOUS
 62
     3
100
AcDbLine
 10
233.731342
 20
22.8
 30
0.0
 11
231.916827
 21
22.8
 31
0.0
  0
LINE
  5
180
100
AcDbEntity
  8
_
  6
CONTINUOUS
 62
     3
100
AcDbLine
 10
231.916827
 20
22.8
 30
0.0
 11
231.916827
 21
27.638409
 31
0.0
  0
LINE
  5
181
100
AcDbEntity
  8
_
  6
CONTINUOUS
 62
     3
100
AcDbLine
 10
231.916827
 20
27.638409
 30
0.0
 11
231.036212
 21
22.8
 31
0.0
  0
LINE
  5
182
100
AcDbEntity
  8
_
  6
CONTINUOUS
 62
     3
100
AcDbLine
 10
231.036212
 20
22.8
 30
0.0
 11
229.396808
 21
22.8
 31
0.0
  0
LINE
  5
183
100
AcDbEntity
  8
_
  6
CONTINUOUS
 62
     3
100
AcDbLine
 10
229.396808
 20
22.8
 30
0.0
 11
230.277423
 21
27.638409
 31
0.0
  0
LINE
  5
184
100
AcDbEntity
  8
_
  6
CONTINUOUS
 62
     3
100
AcDbLine
 10
230.277423
 20
27.638409
 30
0.0
 11
229.396808
 21
27.638409
 31
0.0
  0
LINE
  5
185
100
AcDbEntity
  8
_
  6
CONTINUOUS
 62
     3
100
AcDbLine
 10
229.396808
 20
27.638409
 30
0.0
 11
229.396808
 21
28.646405
 31
0.0
  0
LINE
  5
186
100
AcDbEntity
  8
_
  6
CONTINUOUS
 62
     3
100
AcDbLine
 10
229.396808
 20
28.646405
 30
0.0
 11
231.916827
 21
28.646405
 31
0.0
  0
LINE
  5
187
100
AcDbEntity
  8
_
  6
CONTINUOUS
 62
     3
100
AcDbLine
 10
231.916827
 20
28.646405
 30
0.0
 11
231.916827
 21
29.654401
 31
0.0
  0
LINE
  5
188
100
AcDbEntity
  8
_
  6
CONTINUOUS
 62
     3
100
AcDbLine
 10
231.916827
 20
29.654401
 30
0.0
 11
231.010791
 21
29.654401
 31
0.0
  0
LINE
  5
189
100
AcDbEntity
  8
_
  6
CONTINUOUS
 62
     3
100
AcDbLine
 10
231.010791
 20
29.654401
 30
0.0
 11
230.860248
 21
29.049603
 31
0.0
  0
LINE
  5
18A
100
AcDbEntity
  8
_
  6
CONTINUOUS
 62
     3
100
AcDbLine
 10
230.860248
 20
29.049603
 30
0.0
 11
229.197894
 21
29.049603
 31
0.0
  0
LINE
  5
18B
100
AcDbEntity
  8
_
  6
CONTINUOUS
 62
     3
100
AcDbLine
 10
224.759998
 20
30.662396
 30
0.0
 11
224.759998
 21
29.654401
 31
0.0
  0
LINE
  5
18C
100
AcDbEntity
  8
_
  6
CONTINUOUS
 62
     3
100
AcDbLine
 10
224.759998
 20
30.662396
 30
0.0
 11
226.775928
 21
30.662396
 31
0.0
  0
LINE
  5
18D
100
AcDbEntity
  8
_
  6
CONTINUOUS
 62
     3
100
AcDbLine
 10
226.775928
 20
30.662396
 30
0.0
 11
226.775928
 21
31.670392
 31
0.0
  0
LINE
  5
18E
100
AcDbEntity
  8
_
  6
CONTINUOUS
 62
     3
100
AcDbLine
 10
226.775928
 20
31.670392
 30
0.0
 11
228.590442
 21
31.670392
 31
0.0
  0
LINE
  5
18F
100
AcDbEntity
  8
_
  6
CONTINUOUS
 62
     3
100
AcDbLine
 10
228.590442
 20
31.670392
 30
0.0
 11
228.590442
 21
30.662396
 31
0.0
  0
LINE
  5
190
100
AcDbEntity
  8
_
  6
CONTINUOUS
 62
     3
100
AcDbLine
 10
228.590442
 20
30.662396
 30
0.0
 11
229.195026
 21
30.662396
 31
0.0
  0
LINE
  5
191
100
AcDbEntity
  8
_
  6
CONTINUOUS
 62
     3
100
AcDbLine
 10
229.195026
 20
30.662396
 30
0.0
 11
229.195026
 21
29.654401
 31
0.0
  0
LINE
  5
192
100
AcDbEntity
  8
_
  6
CONTINUOUS
 62
     3
100
AcDbLine
 10
229.195026
 20
29.654401
 30
0.0
 11
228.590442
 21
29.654401
 31
0.0
  0
LINE
  5
193
100
AcDbEntity
  8
_
  6
CONTINUOUS
 62
     3
100
AcDbLine
 10
228.590442
 20
29.654401
 30
0.0
 11
229.195026
 21
28.822003
 31
0.0
  0
LINE
  5
194
100
AcDbEntity
  8
_
  6
CONTINUOUS
 62
     3
100
AcDbLine
 10
229.195026
 20
28.822003
 30
0.0
 11
229.195026
 21
26.764142
 31
0.0
  0
LINE
  5
195
100
AcDbEntity
  8
_
  6
CONTINUOUS
 62
     3
100
AcDbLine
 10
229.195026
 20
26.764142
 30
0.0
 11
228.590442
 21
27.59657
 31
0.0
  0
LINE
  5
196
100
AcDbEntity
  8
_
  6
CONTINUOUS
 62
     3
100
AcDbLine
 10
228.590442
 20
27.59657
 30
0.0
 11
228.590442
 21
22.8
 31
0.0
  0
LINE
  5
197
100
AcDbEntity
  8
_
  6
CONTINUOUS
 62
     3
100
AcDbLine
 10
228.590442
 20
22.8
 30
0.0
 11
226.775928
 21
22.8
 31
0.0
  0
LINE
  5
198
100
AcDbEntity
  8
_
  6
CONTINUOUS
 62
     3
100
AcDbLine
 10
226.775928
 20
22.8
 30
0.0
 11
226.775928
 21
29.654401
 31
0.0
  0
LINE
  5
199
100
AcDbEntity
  8
_
  6
CONTINUOUS
 62
     3
100
AcDbLine
 10
226.696765
 20
29.654401
 30
0.0
 11
225.976123
 21
22.8
 31
0.0
  0
LINE
  5
19A
100
AcDbEntity
  8
_
  6
CONTINUOUS
 62
     3
100
AcDbLine
 10
225.976123
 20
22.8
 30
0.0
 11
224.759998
 21
22.8
 31
0.0
  0
LINE
  5
19B
100
AcDbEntity
  8
_
  6
CONTINUOUS
 62
     3
100
AcDbLine
 10
224.759998
 20
22.8
 30
0.0
 11
225.48064
 21
29.654401
 31
0.0
  0
LINE
  5
19C
100
AcDbEntity
  8
_
  6
CONTINUOUS
 62
     3
100
AcDbLine
 10
225.48064
 20
29.654401
 30
0.0
 11
224.759998
 21
29.654401
 31
0.0
  0
LINE
  5
19D
100
AcDbEntity
  8
_
  6
CONTINUOUS
 62
     3
100
AcDbLine
 10
237.259113
 20
28.444806
 30
0.0
 11
237.259113
 21
27.235211
 31
0.0
  0
LINE
  5
19E
100
AcDbEntity
  8
_
  6
CONTINUOUS
 62
     3
100
AcDbLine
 10
237.259113
 20
28.444806
 30
0.0
 11
243.307269
 21
28.444806
 31
0.0
  0
LINE
  5
19F
100
AcDbEntity
  8
_
  6
CONTINUOUS
 62
     3
100
AcDbLine
 10
243.307269
 20
28.444806
 30
0.0
 11
243.307269
 21
27.235211
 31
0.0
  0
LINE
  5
1A0
100
AcDbEntity
  8
_
  6
CONTINUOUS
 62
     3
100
AcDbLine
 10
243.307269
 20
27.235211
 30
0.0
 11
241.391833
 21
27.235211
 31
0.0
  0
LINE
  5
1A1
100
AcDbEntity
  8
_
  6
CONTINUOUS
 62
     3
100
AcDbLine
 10
241.391833
 20
27.235211
 30
0.0
 11
241.391833
 21
25.554822
 31
0.0
  0
LINE
  5
1A2
100
AcDbEntity
  8
_
  6
CONTINUOUS
 62
     3
100
AcDbLine
 10
241.391833
 20
25.554822
 30
0.0
 11
243.40816
 21
25.983319
 31
0.0
  0
LINE
  5
1A3
100
AcDbEntity
  8
_
  6
CONTINUOUS
 62
     3
100
AcDbLine
 10
243.40816
 20
25.983319
 30
0.0
 11
243.40816
 21
24.1284
 31
0.0
  0
LINE
  5
1A4
100
AcDbEntity
  8
_
  6
CONTINUOUS
 62
     3
100
AcDbLine
 10
243.40816
 20
24.1284
 30
0.0
 11
237.158191
 21
22.8
 31
0.0
  0
LINE
  5
1A5
100
AcDbEntity
  8
_
  6
CONTINUOUS
 62
     3
100
AcDbLine
 10
237.158191
 20
22.8
 30
0.0
 11
237.158191
 21
24.654919
 31
0.0
  0
LINE
  5
1A6
100
AcDbEntity
  8
_
  6
CONTINUOUS
 62
     3
100
AcDbLine
 10
237.158191
 20
24.654919
 30
0.0
 11
239.174518
 21
25.083447
 31
0.0
  0
LINE
  5
1A7
100
AcDbEntity
  8
_
  6
CONTINUOUS
 62
     3
100
AcDbLine
 10
239.174518
 20
25.083447
 30
0.0
 11
239.174518
 21
27.235211
 31
0.0
  0
LINE
  5
1A8
100
AcDbEntity
  8
_
  6
CONTINUOUS
 62
     3
100
AcDbLine
 10
239.174518
 20
27.235211
 30
0.0
 11
237.259113
 21
27.235211
 31
0.0
  0
LINE
  5
1A9
100
AcDbEntity
  8
_
  6
CONTINUOUS
 62
     3
100
AcDbLine
 10
236.654529
 20
30.863995
 30
0.0
 11
236.654529
 21
29.654401
 31
0.0
  0
LINE
  5
1AA
100
AcDbEntity
  8
_
  6
CONTINUOUS
 62
     3
100
AcDbLine
 10
236.654529
 20
30.863995
 30
0.0
 11
242.648975
 21
30.863995
 31
0.0
  0
LINE
  5
1AB
100
AcDbEntity
  8
_
  6
CONTINUOUS
 62
     3
100
AcDbLine
 10
242.648975
 20
30.863995
 30
0.0
 11
242.355701
 21
31.670392
 31
0.0
  0
LINE
  5
1AC
100
AcDbEntity
  8
_
  6
CONTINUOUS
 62
     3
100
AcDbLine
 10
242.355701
 20
31.670392
 30
0.0
 11
244.71532
 21
31.670392
 31
0.0
  0
LINE
  5
1AD
100
AcDbEntity
  8
_
  6
CONTINUOUS
 62
     3
100
AcDbLine
 10
244.71532
 20
31.670392
 30
0.0
 11
245.00899
 21
30.863995
 31
0.0
  0
LINE
  5
1AE
100
AcDbEntity
  8
_
  6
CONTINUOUS
 62
     3
100
AcDbLine
 10
245.00899
 20
30.863995
 30
0.0
 11
245.524982
 21
30.863995
 31
0.0
  0
LINE
  5
1AF
100
AcDbEntity
  8
_
  6
CONTINUOUS
 62
     3
100
AcDbLine
 10
245.524982
 20
30.863995
 30
0.0
 11
245.524982
 21
31.670392
 31
0.0
  0
LINE
  5
1B0
100
AcDbEntity
  8
_
  6
CONTINUOUS
 62
     3
100
AcDbLine
 10
245.524982
 20
31.670392
 30
0.0
 11
247.339099
 21
31.670392
 31
0.0
  0
LINE
  5
1B1
100
AcDbEntity
  8
_
  6
CONTINUOUS
 62
     3
100
AcDbLine
 10
247.339099
 20
31.670392
 30
0.0
 11
247.339099
 21
30.863995
 31
0.0
  0
LINE
  5
1B2
100
AcDbEntity
  8
_
  6
CONTINUOUS
 62
     3
100
AcDbLine
 10
247.339099
 20
30.863995
 30
0.0
 11
247.94408
 21
30.863995
 31
0.0
  0
LINE
  5
1B3
100
AcDbEntity
  8
_
  6
CONTINUOUS
 62
     3
100
AcDbLine
 10
247.94408
 20
30.863995
 30
0.0
 11
247.94408
 21
29.654401
 31
0.0
  0
LINE
  5
1B4
100
AcDbEntity
  8
_
  6
CONTINUOUS
 62
     3
100
AcDbLine
 10
247.94408
 20
29.654401
 30
0.0
 11
245.449084
 21
29.654401
 31
0.0
  0
LINE
  5
1B5
100
AcDbEntity
  8
_
  6
CONTINUOUS
 62
     3
100
AcDbLine
 10
245.449084
 20
29.654401
 30
0.0
 11
247.94408
 21
22.8
 31
0.0
  0
LINE
  5
1B6
100
AcDbEntity
  8
_
  6
CONTINUOUS
 62
     3
100
AcDbLine
 10
247.94408
 20
22.8
 30
0.0
 11
245.584033
 21
22.8
 31
0.0
  0
LINE
  5
1B7
100
AcDbEntity
  8
_
  6
CONTINUOUS
 62
     3
100
AcDbLine
 10
245.584033
 20
22.8
 30
0.0
 11
243.089465
 21
29.654401
 31
0.0
  0
LINE
  5
1B8
100
AcDbEntity
  8
_
  6
CONTINUOUS
 62
     3
100
AcDbLine
 10
243.089465
 20
29.654401
 30
0.0
 11
236.654529
 21
29.654401
 31
0.0
  0
LINE
  5
1B9
100
AcDbEntity
  8
_
  6
CONTINUOUS
 62
     3
100
AcDbLine
 10
248.347278
 20
29.949567
 30
0.0
 11
248.347278
 21
28.673993
 31
0.0
  0
LINE
  5
1BA
100
AcDbEntity
  8
_
  6
CONTINUOUS
 62
     3
100
AcDbLine
 10
248.347278
 20
29.949567
 30
0.0
 11
254.092731
 21
31.871991
 31
0.0
  0
LINE
  5
1BB
100
AcDbEntity
  8
_
  6
CONTINUOUS
 62
     3
100
AcDbLine
 10
254.092731
 20
31.871991
 30
0.0
 11
259.838214
 21
29.949506
 31
0.0
  0
LINE
  5
1BC
100
AcDbEntity
  8
_
  6
CONTINUOUS
 62
     3
100
AcDbLine
 10
259.838214
 20
29.949506
 30
0.0
 11
259.838214
 21
28.673993
 31
0.0
  0
LINE
  5
1BD
100
AcDbEntity
  8
_
  6
CONTINUOUS
 62
     3
100
AcDbLine
 10
259.838214
 20
28.673993
 30
0.0
 11
258.124988
 21
29.247357
 31
0.0
  0
LINE
  5
1BE
100
AcDbEntity
  8
_
  6
CONTINUOUS
 62
     3
100
AcDbLine
 10
258.124988
 20
29.247357
 30
0.0
 11
258.124988
 21
28.243207
 31
0.0
  0
LINE
  5
1BF
100
AcDbEntity
  8
_
  6
CONTINUOUS
 62
     3
100
AcDbLine
 10
258.124988
 20
28.243207
 30
0.0
 11
250.060901
 21
28.243207
 31
0.0
  0
LINE
  5
1C0
100
AcDbEntity
  8
_
  6
CONTINUOUS
 62
     3
100
AcDbLine
 10
250.060901
 20
28.243207
 30
0.0
 11
250.060901
 21
29.247357
 31
0.0
  0
LINE
  5
1C1
100
AcDbEntity
  8
_
  6
CONTINUOUS
 62
     3
100
AcDbLine
 10
250.060901
 20
29.247357
 30
0.0
 11
248.347278
 21
28.673993
 31
0.0
  0
LINE
  5
1C2
100
AcDbEntity
  8
_
  6
CONTINUOUS
 62
     3
100
AcDbLine
 10
250.674915
 20
29.452802
 30
0.0
 11
254.092731
 21
30.596448
 31
0.0
  0
LINE
  5
1C3
100
AcDbEntity
  8
_
  6
CONTINUOUS
 62
     3
100
AcDbLine
 10
254.092731
 20
30.596448
 30
0.0
 11
257.510974
 21
29.452802
 31
0.0
  0
LINE
  5
1C4
100
AcDbEntity
  8
_
  6
CONTINUOUS
 62
     3
100
AcDbLine
 10
257.510974
 20
29.452802
 30
0.0
 11
250.674915
 21
29.452802
 31
0.0
  0
LINE
  5
1C5
100
AcDbEntity
  8
_
  6
CONTINUOUS
 62
     3
100
AcDbLine
 10
248.347278
 20
27.43678
 30
0.0
 11
248.347278
 21
26.227185
 31
0.0
  0
LINE
  5
1C6
100
AcDbEntity
  8
_
  6
CONTINUOUS
 62
     3
100
AcDbLine
 10
248.347278
 20
27.43678
 30
0.0
 11
259.838214
 21
27.43678
 31
0.0
  0
LINE
  5
1C7
100
AcDbEntity
  8
_
  6
CONTINUOUS
 62
     3
100
AcDbLine
 10
259.838214
 20
27.43678
 30
0.0
 11
259.838214
 21
26.227185
 31
0.0
  0
LINE
  5
1C8
100
AcDbEntity
  8
_
  6
CONTINUOUS
 62
     3
100
AcDbLine
 10
259.838214
 20
26.227185
 30
0.0
 11
258.240222
 21
26.227185
 31
0.0
  0
LINE
  5
1C9
100
AcDbEntity
  8
_
  6
CONTINUOUS
 62
     3
100
AcDbLine
 10
258.240222
 20
26.227185
 30
0.0
 11
259.838214
 21
22.8
 31
0.0
  0
LINE
  5
1CA
100
AcDbEntity
  8
_
  6
CONTINUOUS
 62
     3
100
AcDbLine
 10
259.838214
 20
22.8
 30
0.0
 11
248.347278
 21
22.8
 31
0.0
  0
LINE
  5
1CB
100
AcDbEntity
  8
_
  6
CONTINUOUS
 62
     3
100
AcDbLine
 10
248.347278
 20
22.8
 30
0.0
 11
249.945239
 21
26.227185
 31
0.0
  0
LINE
  5
1CC
100
AcDbEntity
  8
_
  6
CONTINUOUS
 62
     3
100
AcDbLine
 10
249.945239
 20
26.227185
 30
0.0
 11
248.347278
 21
26.227185
 31
0.0
  0
LINE
  5
1CD
100
AcDbEntity
  8
_
  6
CONTINUOUS
 62
     3
100
AcDbLine
 10
252.169513
 20
26.227185
 30
0.0
 11
256.015948
 21
26.227185
 31
0.0
  0
LINE
  5
1CE
100
AcDbEntity
  8
_
  6
CONTINUOUS
 62
     3
100
AcDbLine
 10
256.015948
 20
26.227185
 30
0.0
 11
257.049945
 21
24.009595
 31
0.0
  0
LINE
  5
1CF
100
AcDbEntity
  8
_
  6
CONTINUOUS
 62
     3
100
AcDbLine
 10
257.049945
 20
24.009595
 30
0.0
 11
251.135516
 21
24.009595
 31
0.0
  0
LINE
  5
1D0
100
AcDbEntity
  8
_
  6
CONTINUOUS
 62
     3
100
AcDbLine
 10
252.169513
 20
26.227185
 30
0.0
 11
251.135516
 21
24.009595
 31
0.0
  0
LINE
  5
1D1
100
AcDbEntity
  8
_
  6
CONTINUOUS
 62
     3
100
AcDbLine
 10
265.684985
 20
29.452802
 30
0.0
 11
265.684985
 21
28.243207
 31
0.0
  0
LINE
  5
1D2
100
AcDbEntity
  8
_
  6
CONTINUOUS
 62
     3
100
AcDbLine
 10
265.684985
 20
29.452802
 30
0.0
 11
267.499103
 21
29.452802
 31
0.0
  0
LINE
  5
1D3
100
AcDbEntity
  8
_
  6
CONTINUOUS
 62
     3
100
AcDbLine
 10
267.499103
 20
29.452802
 30
0.0
 11
267.499103
 21
31.670392
 31
0.0
  0
LINE
  5
1D4
100
AcDbEntity
  8
_
  6
CONTINUOUS
 62
     3
100
AcDbLine
 10
267.499103
 20
31.670392
 30
0.0
 11
269.515002
 21
31.670392
 31
0.0
  0
LINE
  5
1D5
100
AcDbEntity
  8
_
  6
CONTINUOUS
 62
     3
100
AcDbLine
 10
269.515002
 20
31.670392
 30
0.0
 11
269.515002
 21
29.452802
 31
0.0
  0
LINE
  5
1D6
100
AcDbEntity
  8
_
  6
CONTINUOUS
 62
     3
100
AcDbLine
 10
269.515002
 20
29.452802
 30
0.0
 11
271.329547
 21
29.452802
 31
0.0
  0
LINE
  5
1D7
100
AcDbEntity
  8
_
  6
CONTINUOUS
 62
     3
100
AcDbLine
 10
271.329547
 20
29.452802
 30
0.0
 11
271.329547
 21
28.243207
 31
0.0
  0
LINE
  5
1D8
100
AcDbEntity
  8
_
  6
CONTINUOUS
 62
     3
100
AcDbLine
 10
271.329547
 20
28.243207
 30
0.0
 11
269.515002
 21
28.243207
 31
0.0
  0
LINE
  5
1D9
100
AcDbEntity
  8
_
  6
CONTINUOUS
 62
     3
100
AcDbLine
 10
269.515002
 20
28.243207
 30
0.0
 11
269.515002
 21
24.009595
 31
0.0
  0
LINE
  5
1DA
100
AcDbEntity
  8
_
  6
CONTINUOUS
 62
     3
100
AcDbLine
 10
269.515002
 20
24.009595
 30
0.0
 11
271.531329
 21
24.009595
 31
0.0
  0
LINE
  5
1DB
100
AcDbEntity
  8
_
  6
CONTINUOUS
 62
     3
100
AcDbLine
 10
271.531329
 20
24.009595
 30
0.0
 11
271.531329
 21
22.8
 31
0.0
  0
LINE
  5
1DC
100
AcDbEntity
  8
_
  6
CONTINUOUS
 62
     3
100
AcDbLine
 10
271.531329
 20
22.8
 30
0.0
 11
264.878192
 21
22.8
 31
0.0
  0
LINE
  5
1DD
100
AcDbEntity
  8
_
  6
CONTINUOUS
 62
     3
100
AcDbLine
 10
264.878192
 20
22.8
 30
0.0
 11
264.878192
 21
24.009595
 31
0.0
  0
LINE
  5
1DE
100
AcDbEntity
  8
_
  6
CONTINUOUS
 62
     3
100
AcDbLine
 10
264.878192
 20
24.009595
 30
0.0
 11
267.499103
 21
24.009595
 31
0.0
  0
LINE
  5
1DF
100
AcDbEntity
  8
_
  6
CONTINUOUS
 62
     3
100
AcDbLine
 10
267.499103
 20
24.009595
 30
0.0
 11
267.499103
 21
28.243207
 31
0.0
  0
LINE
  5
1E0
100
AcDbEntity
  8
_
  6
CONTINUOUS
 62
     3
100
AcDbLine
 10
267.499103
 20
28.243207
 30
0.0
 11
265.684985
 21
28.243207
 31
0.0
  0
LINE
  5
1E1
100
AcDbEntity
  8
_
  6
CONTINUOUS
 62
     3
100
AcDbLine
 10
260.241382
 20
30.863995
 30
0.0
 11
260.241382
 21
29.654401
 31
0.0
  0
LINE
  5
1E2
100
AcDbEntity
  8
_
  6
CONTINUOUS
 62
     3
100
AcDbLine
 10
260.241382
 20
30.863995
 30
0.0
 11
262.055927
 21
30.863995
 31
0.0
  0
LINE
  5
1E3
100
AcDbEntity
  8
_
  6
CONTINUOUS
 62
     3
100
AcDbLine
 10
262.055927
 20
30.863995
 30
0.0
 11
262.055927
 21
31.670392
 31
0.0
  0
LINE
  5
1E4
100
AcDbEntity
  8
_
  6
CONTINUOUS
 62
     3
100
AcDbLine
 10
262.055927
 20
31.670392
 30
0.0
 11
264.071826
 21
31.670392
 31
0.0
  0
LINE
  5
1E5
100
AcDbEntity
  8
_
  6
CONTINUOUS
 62
     3
100
AcDbLine
 10
264.071826
 20
31.670392
 30
0.0
 11
264.071826
 21
30.863995
 31
0.0
  0
LINE
  5
1E6
100
AcDbEntity
  8
_
  6
CONTINUOUS
 62
     3
100
AcDbLine
 10
264.071826
 20
30.863995
 30
0.0
 11
265.886371
 21
30.863995
 31
0.0
  0
LINE
  5
1E7
100
AcDbEntity
  8
_
  6
CONTINUOUS
 62
     3
100
AcDbLine
 10
265.886371
 20
30.863995
 30
0.0
 11
263.805225
 21
27.891156
 31
0.0
  0
LINE
  5
1E8
100
AcDbEntity
  8
_
  6
CONTINUOUS
 62
     3
100
AcDbLine
 10
263.805225
 20
27.891156
 30
0.0
 11
265.684985
 21
26.575177
 31
0.0
  0
LINE
  5
1E9
100
AcDbEntity
  8
_
  6
CONTINUOUS
 62
     3
100
AcDbLine
 10
265.684985
 20
26.575177
 30
0.0
 11
265.684985
 21
24.360242
 31
0.0
  0
LINE
  5
1EA
100
AcDbEntity
  8
_
  6
CONTINUOUS
 62
     3
100
AcDbLine
 10
265.684985
 20
24.360242
 30
0.0
 11
264.071826
 21
25.489545
 31
0.0
  0
LINE
  5
1EB
100
AcDbEntity
  8
_
  6
CONTINUOUS
 62
     3
100
AcDbLine
 10
264.071826
 20
25.489545
 30
0.0
 11
264.071826
 21
22.8
 31
0.0
  0
LINE
  5
1EC
100
AcDbEntity
  8
_
  6
CONTINUOUS
 62
     3
100
AcDbLine
 10
264.071826
 20
22.8
 30
0.0
 11
262.055927
 21
22.8
 31
0.0
  0
LINE
  5
1ED
100
AcDbEntity
  8
_
  6
CONTINUOUS
 62
     3
100
AcDbLine
 10
262.055927
 20
22.8
 30
0.0
 11
262.055927
 21
25.39198
 31
0.0
  0
LINE
  5
1EE
100
AcDbEntity
  8
_
  6
CONTINUOUS
 62
     3
100
AcDbLine
 10
262.055927
 20
25.39198
 30
0.0
 11
260.241382
 21
22.8
 31
0.0
  0
LINE
  5
1EF
100
AcDbEntity
  8
_
  6
CONTINUOUS
 62
     3
100
AcDbLine
 10
260.241382
 20
22.8
 30
0.0
 11
260.241382
 21
25.963879
 31
0.0
  0
LINE
  5
1F0
100
AcDbEntity
  8
_
  6
CONTINUOUS
 62
     3
100
AcDbLine
 10
260.241382
 20
25.963879
 30
0.0
 11
262.82497
 21
29.654401
 31
0.0
  0
LINE
  5
1F1
100
AcDbEntity
  8
_
  6
CONTINUOUS
 62
     3
100
AcDbLine
 10
262.82497
 20
29.654401
 30
0.0
 11
260.241382
 21
29.654401
 31
0.0
  0
ARC
  5
1F2
100
AcDbEntity
  8
_
  6
CONTINUOUS
 62
     2
100
AcDbCircle
 10
171.832202
 20
28.040082
 30
0.0
 40
1.260024
100
AcDbArc
 50
310.768311
 51
335.998779
  0
LINE
  5
1F3
100
AcDbEntity
  8
_
  6
CONTINUOUS
 62
     2
100
AcDbLine
 10
173.280048
 20
28.192822
 30
0.0
 11
172.983936
 21
27.527814
 31
0.0
  0
LINE
  5
1F4
100
AcDbEntity
  8
_
  6
CONTINUOUS
 62
     2
100
AcDbLine
 10
169.797015
 20
28.948804
 30
0.0
 11
174.443683
 21
28.948804
 31
0.0
  0
ARC
  5
1F5
100
AcDbEntity
  8
_
  6
CONTINUOUS
 62
     2
100
AcDbCircle
 10
190.459857
 20
26.428815
 30
0.0
 40
3.124802
100
AcDbArc
 50
270.000031
 51
324.00116
  0
ARC
  5
1F6
100
AcDbEntity
  8
_
  6
CONTINUOUS
 62
     2
100
AcDbCircle
 10
190.459857
 20
26.428815
 30
0.0
 40
2.620802
100
AcDbArc
 50
270.000031
 51
324.00116
  0
ARC
  5
1F7
100
AcDbEntity
  8
_
  6
CONTINUOUS
 62
     2
100
AcDbCircle
 10
159.913135
 20
26.428815
 30
0.0
 40
3.124796
100
AcDbArc
 50
270.000031
 51
333.99855
  0
ARC
  5
1F8
100
AcDbEntity
  8
_
  6
CONTINUOUS
 62
     2
100
AcDbCircle
 10
159.753101
 20
26.428815
 30
0.0
 40
2.116798
100
AcDbArc
 50
270.000031
 51
333.99855
  0
ARC
  5
1F9
100
AcDbEntity
  8
_
  6
CONTINUOUS
 62
     2
100
AcDbCircle
 10
159.833118
 20
26.428815
 30
0.0
 40
2.620798
100
AcDbArc
 50
270.000031
 51
333.99855
  0
LINE
  5
1FA
100
AcDbEntity
  8
_
  6
CONTINUOUS
 62
     2
100
AcDbLine
 10
154.568164
 20
31.206425
 30
0.0
 11
159.476794
 21
31.206425
 31
0.0
  0
LINE
  5
1FB
100
AcDbEntity
  8
_
  6
CONTINUOUS
 62
     2
100
AcDbLine
 10
154.568164
 20
30.742429
 30
0.0
 11
159.476794
 21
30.742429
 31
0.0
  0
LINE
  5
1FC
100
AcDbEntity
  8
_
  6
CONTINUOUS
 62
     2
100
AcDbLine
 10
154.568164
 20
30.278462
 30
0.0
 11
159.476794
 21
30.278462
 31
0.0
  0
LINE
  5
1FD
100
AcDbEntity
  8
_
  6
CONTINUOUS
 62
     2
100
AcDbLine
 10
154.568164
 20
28.827206
 30
0.0
 11
159.476794
 21
28.827206
 31
0.0
  0
LINE
  5
1FE
100
AcDbEntity
  8
_
  6
CONTINUOUS
 62
     2
100
AcDbLine
 10
154.568164
 20
28.323178
 30
0.0
 11
159.476794
 21
28.323178
 31
0.0
  0
LINE
  5
1FF
100
AcDbEntity
  8
_
  6
CONTINUOUS
 62
     2
100
AcDbLine
 10
154.568164
 20
27.859212
 30
0.0
 11
159.476794
 21
27.859212
 31
0.0
  0
LINE
  5
200
100
AcDbEntity
  8
_
  6
CONTINUOUS
 62
     2
100
AcDbLine
 10
154.568164
 20
24.311993
 30
0.0
 11
159.753101
 21
24.311993
 31
0.0
  0
LINE
  5
201
100
AcDbEntity
  8
_
  6
CONTINUOUS
 62
     2
100
AcDbLine
 10
154.568164
 20
23.807996
 30
0.0
 11
159.753101
 21
23.807996
 31
0.0
  0
LINE
  5
202
100
AcDbEntity
  8
_
  6
CONTINUOUS
 62
     2
100
AcDbLine
 10
154.568164
 20
23.303998
 30
0.0
 11
159.753101
 21
23.303998
 31
0.0
  0
LINE
  5
203
100
AcDbEntity
  8
_
  6
CONTINUOUS
 62
     2
100
AcDbLine
 10
161.655414
 20
25.500806
 30
0.0
 11
163.421649
 21
29.122073
 31
0.0
  0
LINE
  5
204
100
AcDbEntity
  8
_
  6
CONTINUOUS
 62
     2
100
AcDbLine
 10
162.188251
 20
25.279919
 30
0.0
 11
164.062335
 21
29.122075
 31
0.0
  0
LINE
  5
205
100
AcDbEntity
  8
_
  6
CONTINUOUS
 62
     2
100
AcDbLine
 10
162.721057
 20
25.05885
 30
0.0
 11
164.702625
 21
29.122069
 31
0.0
  0
LINE
  5
206
100
AcDbEntity
  8
_
  6
CONTINUOUS
 62
     2
100
AcDbLine
 10
162.027271
 20
31.139195
 30
0.0
 11
162.903674
 21
31.139195
 31
0.0
  0
LINE
  5
207
100
AcDbEntity
  8
_
  6
CONTINUOUS
 62
     2
100
AcDbLine
 10
162.027271
 20
30.567998
 30
0.0
 11
162.903674
 21
30.567998
 31
0.0
  0
LINE
  5
208
100
AcDbEntity
  8
_
  6
CONTINUOUS
 62
     2
100
AcDbLine
 10
164.244983
 20
31.139195
 30
0.0
 11
165.121387
 21
31.139195
 31
0.0
  0
LINE
  5
209
100
AcDbEntity
  8
_
  6
CONTINUOUS
 62
     2
100
AcDbLine
 10
164.244983
 20
30.567998
 30
0.0
 11
165.121387
 21
30.567998
 31
0.0
  0
LINE
  5
20A
100
AcDbEntity
  8
_
  6
CONTINUOUS
 62
     2
100
AcDbLine
 10
166.462695
 20
28.444836
 30
0.0
 11
168.856128
 21
28.444836
 31
0.0
  0
LINE
  5
20B
100
AcDbEntity
  8
_
  6
CONTINUOUS
 62
     2
100
AcDbLine
 10
168.275073
 20
30.500537
 30
0.0
 11
168.521014
 21
28.948804
 31
0.0
  0
LINE
  5
20C
100
AcDbEntity
  8
_
  6
CONTINUOUS
 62
     2
100
AcDbLine
 10
169.43761
 20
23.163461
 30
0.0
 11
168.689807
 21
27.883809
 31
0.0
  0
ARC
  5
20D
100
AcDbEntity
  8
_
  6
CONTINUOUS
 62
     2
100
AcDbCircle
 10
171.792194
 20
28.040082
 30
0.0
 40
1.764024
100
AcDbArc
 50
272.671387
 51
335.998779
  0
ARC
  5
20E
100
AcDbEntity
  8
_
  6
CONTINUOUS
 62
     2
100
AcDbCircle
 10
171.752185
 20
28.040082
 30
0.0
 40
2.268023
100
AcDbArc
 50
267.367432
 51
335.998779
  0
LINE
  5
20F
100
AcDbEntity
  8
_
  6
CONTINUOUS
 62
     2
100
AcDbLine
 10
174.670337
 20
29.018105
 30
0.0
 11
173.824298
 21
27.117718
 31
0.0
  0
LINE
  5
210
100
AcDbEntity
  8
_
  6
CONTINUOUS
 62
     2
100
AcDbLine
 10
170.618121
 20
23.163461
 30
0.0
 11
169.844074
 21
28.049764
 31
0.0
  0
LINE
  5
211
100
AcDbEntity
  8
_
  6
CONTINUOUS
 62
     2
100
AcDbLine
 10
170.067859
 20
23.163461
 30
0.0
 11
168.905688
 21
30.500535
 31
0.0
  0
LINE
  5
212
100
AcDbEntity
  8
_
  6
CONTINUOUS
 62
     2
100
AcDbLine
 10
169.455951
 20
30.500535
 30
0.0
 11
169.679126
 21
29.091893
 31
0.0
  0
LINE
  5
213
100
AcDbEntity
  8
_
  6
CONTINUOUS
 62
     2
100
AcDbLine
 10
166.462695
 20
28.948804
 30
0.0
 11
168.121021
 21
28.948804
 31
0.0
  0
LINE
  5
214
100
AcDbEntity
  8
_
  6
CONTINUOUS
 62
     2
100
AcDbLine
 10
173.933978
 20
28.514079
 30
0.0
 11
173.404102
 21
27.322705
 31
0.0
  0
LINE
  5
215
100
AcDbEntity
  8
_
  6
CONTINUOUS
 62
     2
100
AcDbLine
 10
169.621478
 20
28.444836
 30
0.0
 11
173.467639
 21
28.444836
 31
0.0
  0
ARC
  5
216
100
AcDbEntity
  8
_
  6
CONTINUOUS
 62
     2
100
AcDbCircle
 10
171.712177
 20
28.040082
 30
0.0
 40
2.772022
100
AcDbArc
 50
269.611328
 51
335.998779
  0
LINE
  5
217
100
AcDbEntity
  8
_
  6
CONTINUOUS
 62
     2
100
AcDbLine
 10
175.181964
 20
29.018111
 30
0.0
 11
174.244495
 21
26.912671
 31
0.0
  0
LINE
  5
218
100
AcDbEntity
  8
_
  6
CONTINUOUS
 62
     2
100
AcDbLine
 10
196.662524
 20
30.662427
 30
0.0
 11
192.576129
 21
25.036542
 31
0.0
  0
LINE
  5
219
100
AcDbEntity
  8
_
  6
CONTINUOUS
 62
     2
100
AcDbLine
 10
195.573627
 20
30.158459
 30
0.0
 11
192.068408
 21
25.332806
 31
0.0
  0
ARC
  5
21A
100
AcDbEntity
  8
_
  6
CONTINUOUS
 62
     2
100
AcDbCircle
 10
190.599872
 20
26.348813
 30
0.0
 40
1.864804
100
AcDbArc
 50
270.000031
 51
324.00116
  0
LINE
  5
21B
100
AcDbEntity
  8
_
  6
CONTINUOUS
 62
     2
100
AcDbLine
 10
176.775897
 20
31.203118
 30
0.0
 11
185.652728
 21
31.203118
 31
0.0
  0
LINE
  5
21C
100
AcDbEntity
  8
_
  6
CONTINUOUS
 62
     2
100
AcDbLine
 10
176.775897
 20
30.67915
 30
0.0
 11
185.652728
 21
30.67915
 31
0.0
  0
LINE
  5
21D
100
AcDbEntity
  8
_
  6
CONTINUOUS
 62
     2
100
AcDbLine
 10
176.775897
 20
30.135182
 30
0.0
 11
185.652728
 21
30.135182
 31
0.0
  0
LINE
  5
21E
100
AcDbEntity
  8
_
  6
CONTINUOUS
 62
     2
100
AcDbLine
 10
175.969531
 20
24.328809
 30
0.0
 11
186.459094
 21
24.328809
 31
0.0
  0
LINE
  5
21F
100
AcDbEntity
  8
_
  6
CONTINUOUS
 62
     2
100
AcDbLine
 10
175.969531
 20
23.824811
 30
0.0
 11
186.459094
 21
23.824811
 31
0.0
  0
LINE
  5
220
100
AcDbEntity
  8
_
  6
CONTINUOUS
 62
     2
100
AcDbLine
 10
175.969531
 20
23.280782
 30
0.0
 11
186.459094
 21
23.280782
 31
0.0
  0
LINE
  5
221
100
AcDbEntity
  8
_
  6
CONTINUOUS
 62
     2
100
AcDbLine
 10
188.670428
 20
31.186425
 30
0.0
 11
197.251361
 21
31.186425
 31
0.0
  0
LINE
  5
222
100
AcDbEntity
  8
_
  6
CONTINUOUS
 62
     2
100
AcDbLine
 10
197.771381
 20
31.166425
 30
0.0
 11
193.103809
 21
24.740125
 31
0.0
  0
LINE
  5
223
100
AcDbEntity
  8
_
  6
CONTINUOUS
 62
     2
100
AcDbLine
 10
188.670428
 20
30.662427
 30
0.0
 11
196.2625
 21
30.662427
 31
0.0
  0
LINE
  5
224
100
AcDbEntity
  8
_
  6
CONTINUOUS
 62
     2
100
AcDbLine
 10
190.459857
 20
24.331994
 30
0.0
 11
187.864062
 21
24.331994
 31
0.0
  0
LINE
  5
225
100
AcDbEntity
  8
_
  6
CONTINUOUS
 62
     2
100
AcDbLine
 10
190.459857
 20
23.807996
 30
0.0
 11
187.864062
 21
23.807996
 31
0.0
  0
LINE
  5
226
100
AcDbEntity
  8
_
  6
CONTINUOUS
 62
     2
100
AcDbLine
 10
190.459857
 20
23.283997
 30
0.0
 11
187.864062
 21
23.283997
 31
0.0
  0
LINE
  5
227
100
AcDbEntity
  8
_
  6
CONTINUOUS
 62
     2
100
AcDbLine
 10
194.486377
 20
25.94743
 30
0.0
 11
196.874316
 21
23.2
 31
0.0
  0
LINE
  5
228
100
AcDbEntity
  8
_
  6
CONTINUOUS
 62
     2
100
AcDbLine
 10
194.790698
 20
26.306102
 30
0.0
 11
197.490344
 21
23.2
 31
0.0
  0
LINE
  5
229
100
AcDbEntity
  8
_
  6
CONTINUOUS
 62
     2
100
AcDbLine
 10
195.094623
 20
26.66459
 30
0.0
 11
198.105884
 21
23.2
 31
0.0
  0
LINE
  5
22A
100
AcDbEntity
  8
_
  6
CONTINUOUS
 62
     2
100
AcDbLine
 10
195.398547
 20
27.023169
 30
0.0
 11
198.721851
 21
23.2
 31
0.0
  0
LINE
  5
22B
100
AcDbEntity
  8
_
  6
CONTINUOUS
 62
     2
100
AcDbLine
 10
188.670428
 20
30.118459
 30
0.0
 11
195.073596
 21
30.118459
 31
0.0
  0
LINE
  5
22C
100
AcDbEntity
  8
_
  6
CONTINUOUS
 62
     2
100
AcDbLine
 10
202.379108
 20
31.206425
 30
0.0
 11
212.062274
 21
31.206425
 31
0.0
  0
LINE
  5
22D
100
AcDbEntity
  8
_
  6
CONTINUOUS
 62
     2
100
AcDbLine
 10
202.379108
 20
30.702428
 30
0.0
 11
212.062274
 21
30.702428
 31
0.0
  0
LINE
  5
22E
100
AcDbEntity
  8
_
  6
CONTINUOUS
 62
     2
100
AcDbLine
 10
206.53548
 20
24.295983
 30
0.0
 11
206.53548
 21
30.242444
 31
0.0
  0
LINE
  5
22F
100
AcDbEntity
  8
_
  6
CONTINUOUS
 62
     2
100
AcDbLine
 10
207.039172
 20
24.295983
 30
0.0
 11
207.039172
 21
30.242444
 31
0.0
  0
LINE
  5
230
100
AcDbEntity
  8
_
  6
CONTINUOUS
 62
     2
100
AcDbLine
 10
207.542834
 20
24.295983
 30
0.0
 11
207.542834
 21
30.242444
 31
0.0
  0
LINE
  5
231
100
AcDbEntity
  8
_
  6
CONTINUOUS
 62
     2
100
AcDbLine
 10
208.006488
 20
24.295983
 30
0.0
 11
208.006488
 21
30.242444
 31
0.0
  0
LINE
  5
232
100
AcDbEntity
  8
_
  6
CONTINUOUS
 62
     2
100
AcDbLine
 10
201.975909
 20
23.895984
 30
0.0
 11
212.465472
 21
23.895984
 31
0.0
  0
LINE
  5
233
100
AcDbEntity
  8
_
  6
CONTINUOUS
 62
     2
100
AcDbLine
 10
201.975909
 20
23.291985
 30
0.0
 11
212.465472
 21
23.291985
 31
0.0
  0
LINE
  5
234
100
AcDbEntity
  8
_
  6
CONTINUOUS
 62
     2
100
AcDbLine
 10
214.825519
 20
31.270392
 30
0.0
 11
215.574176
 21
30.3123
 31
0.0
  0
LINE
  5
235
100
AcDbEntity
  8
_
  6
CONTINUOUS
 62
     2
100
AcDbLine
 10
215.464954
 20
31.270392
 30
0.0
 11
216.213611
 21
30.3123
 31
0.0
  0
LINE
  5
236
100
AcDbEntity
  8
_
  6
CONTINUOUS
 62
     2
100
AcDbLine
 10
217.462268
 20
31.270392
 30
0.0
 11
217.462268
 21
30.397113
 31
0.0
  0
LINE
  5
237
100
AcDbEntity
  8
_
  6
CONTINUOUS
 62
     2
100
AcDbLine
 10
218.005969
 20
31.270392
 30
0.0
 11
218.005969
 21
30.397113
 31
0.0
  0
LINE
  5
238
100
AcDbEntity
  8
_
  6
CONTINUOUS
 62
     2
100
AcDbLine
 10
219.478198
 20
31.270392
 30
0.0
 11
219.478198
 21
30.397113
 31
0.0
  0
LINE
  5
239
100
AcDbEntity
  8
_
  6
CONTINUOUS
 62
     2
100
AcDbLine
 10
220.061877
 20
31.270392
 30
0.0
 11
220.061877
 21
30.397113
 31
0.0
  0
LINE
  5
23A
100
AcDbEntity
  8
_
  6
CONTINUOUS
 62
     2
100
AcDbLine
 10
221.999133
 20
31.270392
 30
0.0
 11
221.250476
 21
30.3123
 31
0.0
  0
LINE
  5
23B
100
AcDbEntity
  8
_
  6
CONTINUOUS
 62
     2
100
AcDbLine
 10
222.678577
 20
31.270392
 30
0.0
 11
221.929919
 21
30.3123
 31
0.0
  0
LINE
  5
23C
100
AcDbEntity
  8
_
  6
CONTINUOUS
 62
     2
100
AcDbLine
 10
213.467242
 20
29.997113
 30
0.0
 11
223.956805
 21
29.997113
 31
0.0
  0
LINE
  5
23D
100
AcDbEntity
  8
_
  6
CONTINUOUS
 62
     2
100
AcDbLine
 10
216.086353
 20
28.437657
 30
0.0
 11
215.655566
 21
29.621236
 31
0.0
  0
LINE
  5
23E
100
AcDbEntity
  8
_
  6
CONTINUOUS
 62
     2
100
AcDbLine
 10
216.702441
 20
28.437657
 30
0.0
 11
216.271655
 21
29.621236
 31
0.0
  0
LINE
  5
23F
100
AcDbEntity
  8
_
  6
CONTINUOUS
 62
     2
100
AcDbLine
 10
217.278522
 20
28.437703
 30
0.0
 11
216.848224
 21
29.62119
 31
0.0
  0
LINE
  5
240
100
AcDbEntity
  8
_
  6
CONTINUOUS
 62
     2
100
AcDbLine
 10
220.183887
 20
28.437613
 30
0.0
 11
220.615131
 21
29.62128
 31
0.0
  0
LINE
  5
241
100
AcDbEntity
  8
_
  6
CONTINUOUS
 62
     2
100
AcDbLine
 10
220.800403
 20
28.437613
 30
0.0
 11
221.231647
 21
29.62128
 31
0.0
  0
LINE
  5
242
100
AcDbEntity
  8
_
  6
CONTINUOUS
 62
     2
100
AcDbLine
 10
221.376483
 20
28.437613
 30
0.0
 11
221.807727
 21
29.62128
 31
0.0
  0
LINE
  5
243
100
AcDbEntity
  8
_
  6
CONTINUOUS
 62
     2
100
AcDbLine
 10
213.467242
 20
28.06178
 30
0.0
 11
223.956805
 21
28.06178
 31
0.0
  0
LINE
  5
244
100
AcDbEntity
  8
_
  6
CONTINUOUS
 62
     2
100
AcDbLine
 10
213.467242
 20
26.670728
 30
0.0
 11
217.767749
 21
26.670728
 31
0.0
  0
LINE
  5
245
100
AcDbEntity
  8
_
  6
CONTINUOUS
 62
     2
100
AcDbLine
 10
213.467242
 20
25.279675
 30
0.0
 11
217.767749
 21
25.279675
 31
0.0
  0
LINE
  5
246
100
AcDbEntity
  8
_
  6
CONTINUOUS
 62
     2
100
AcDbLine
 10
219.695117
 20
25.279675
 30
0.0
 11
223.956805
 21
25.279675
 31
0.0
  0
LINE
  5
247
100
AcDbEntity
  8
_
  6
CONTINUOUS
 62
     2
100
AcDbLine
 10
214.101764
 20
23.2
 30
0.0
 11
216.106647
 21
25.011508
 31
0.0
  0
LINE
  5
248
100
AcDbEntity
  8
_
  6
CONTINUOUS
 62
     2
100
AcDbLine
 10
214.773547
 20
23.2
 30
0.0
 11
216.778491
 21
25.011512
 31
0.0
  0
LINE
  5
249
100
AcDbEntity
  8
_
  6
CONTINUOUS
 62
     2
100
AcDbLine
 10
215.40575
 20
23.2
 30
0.0
 11
217.410693
 21
25.011512
 31
0.0
  0
LINE
  5
24A
100
AcDbEntity
  8
_
  6
CONTINUOUS
 62
     2
100
AcDbLine
 10
218.167743
 20
23.2
 30
0.0
 11
218.167743
 21
27.66178
 31
0.0
  0
LINE
  5
24B
100
AcDbEntity
  8
_
  6
CONTINUOUS
 62
     2
100
AcDbLine
 10
218.751422
 20
23.2
 30
0.0
 11
218.751422
 21
27.66178
 31
0.0
  0
LINE
  5
24C
100
AcDbEntity
  8
_
  6
CONTINUOUS
 62
     2
100
AcDbLine
 10
219.295123
 20
23.2
 30
0.0
 11
219.295123
 21
27.66178
 31
0.0
  0
LINE
  5
24D
100
AcDbEntity
  8
_
  6
CONTINUOUS
 62
     2
100
AcDbLine
 10
222.034351
 20
23.2
 30
0.0
 11
220.029468
 21
25.011508
 31
0.0
  0
LINE
  5
24E
100
AcDbEntity
  8
_
  6
CONTINUOUS
 62
     2
100
AcDbLine
 10
222.706165
 20
23.2
 30
0.0
 11
220.701221
 21
25.011512
 31
0.0
  0
LINE
  5
24F
100
AcDbEntity
  8
_
  6
CONTINUOUS
 62
     2
100
AcDbLine
 10
223.378375
 20
23.2
 30
0.0
 11
221.373431
 21
25.011512
 31
0.0
  0
LINE
  5
250
100
AcDbEntity
  8
_
  6
CONTINUOUS
 62
     2
100
AcDbLine
 10
227.199573
 20
31.270392
 30
0.0
 11
227.199573
 21
30.558398
 31
0.0
  0
LINE
  5
251
100
AcDbEntity
  8
_
  6
CONTINUOUS
 62
     2
100
AcDbLine
 10
227.703235
 20
31.270392
 30
0.0
 11
227.703235
 21
30.558398
 31
0.0
  0
LINE
  5
252
100
AcDbEntity
  8
_
  6
CONTINUOUS
 62
     2
100
AcDbLine
 10
228.206928
 20
31.270392
 30
0.0
 11
228.206928
 21
30.558398
 31
0.0
  0
LINE
  5
253
100
AcDbEntity
  8
_
  6
CONTINUOUS
 62
     2
100
AcDbLine
 10
225.159991
 20
30.158398
 30
0.0
 11
228.795032
 21
30.158398
 31
0.0
  0
LINE
  5
254
100
AcDbEntity
  8
_
  6
CONTINUOUS
 62
     2
100
AcDbLine
 10
225.188831
 20
23.19781
 30
0.0
 11
225.878406
 21
29.760588
 31
0.0
  0
LINE
  5
255
100
AcDbEntity
  8
_
  6
CONTINUOUS
 62
     2
100
AcDbLine
 10
225.655353
 20
23.19781
 30
0.0
 11
226.344958
 21
29.760588
 31
0.0
  0
LINE
  5
256
100
AcDbEntity
  8
_
  6
CONTINUOUS
 62
     2
100
AcDbLine
 10
227.199573
 20
23.2
 30
0.0
 11
227.199573
 21
29.758399
 31
0.0
  0
LINE
  5
257
100
AcDbEntity
  8
_
  6
CONTINUOUS
 62
     2
100
AcDbLine
 10
227.703235
 20
23.2
 30
0.0
 11
227.703235
 21
29.758399
 31
0.0
  0
LINE
  5
258
100
AcDbEntity
  8
_
  6
CONTINUOUS
 62
     2
100
AcDbLine
 10
228.206928
 20
23.2
 30
0.0
 11
228.206928
 21
29.758399
 31
0.0
  0
LINE
  5
259
100
AcDbEntity
  8
_
  6
CONTINUOUS
 62
     2
100
AcDbLine
 10
228.441852
 20
29.230849
 30
0.0
 11
228.960071
 21
28.516768
 31
0.0
  0
LINE
  5
25A
100
AcDbEntity
  8
_
  6
CONTINUOUS
 62
     2
100
AcDbLine
 10
228.441852
 20
28.452849
 30
0.0
 11
228.960071
 21
27.738768
 31
0.0
  0
LINE
  5
25B
100
AcDbEntity
  8
_
  6
CONTINUOUS
 62
     2
100
AcDbLine
 10
229.693835
 20
29.43772
 30
0.0
 11
230.153766
 21
31.282275
 31
0.0
  0
LINE
  5
25C
100
AcDbEntity
  8
_
  6
CONTINUOUS
 62
     2
100
AcDbLine
 10
230.17348
 20
29.437737
 30
0.0
 11
230.633044
 21
31.282258
 31
0.0
  0
LINE
  5
25D
100
AcDbEntity
  8
_
  6
CONTINUOUS
 62
     2
100
AcDbLine
 10
230.592761
 20
29.43772
 30
0.0
 11
231.052692
 21
31.282275
 31
0.0
  0
LINE
  5
25E
100
AcDbEntity
  8
_
  6
CONTINUOUS
 62
     2
100
AcDbLine
 10
232.340472
 20
30.558398
 30
0.0
 11
232.340472
 21
31.270392
 31
0.0
  0
LINE
  5
25F
100
AcDbEntity
  8
_
  6
CONTINUOUS
 62
     2
100
AcDbLine
 10
232.884143
 20
30.558398
 30
0.0
 11
232.884143
 21
31.270392
 31
0.0
  0
LINE
  5
260
100
AcDbEntity
  8
_
  6
CONTINUOUS
 62
     2
100
AcDbLine
 10
233.387836
 20
30.558398
 30
0.0
 11
233.387836
 21
31.270392
 31
0.0
  0
LINE
  5
261
100
AcDbEntity
  8
_
  6
CONTINUOUS
 62
     2
100
AcDbLine
 10
231.172443
 20
30.158398
 30
0.0
 11
235.649554
 21
30.158398
 31
0.0
  0
LINE
  5
262
100
AcDbEntity
  8
_
  6
CONTINUOUS
 62
     2
100
AcDbLine
 10
232.340472
 20
29.758399
 30
0.0
 11
232.340472
 21
28.542407
 31
0.0
  0
LINE
  5
263
100
AcDbEntity
  8
_
  6
CONTINUOUS
 62
     2
100
AcDbLine
 10
232.884143
 20
29.758399
 30
0.0
 11
232.884143
 21
28.542407
 31
0.0
  0
LINE
  5
264
100
AcDbEntity
  8
_
  6
CONTINUOUS
 62
     2
100
AcDbLine
 10
233.387836
 20
29.758399
 30
0.0
 11
233.387836
 21
28.542407
 31
0.0
  0
LINE
  5
265
100
AcDbEntity
  8
_
  6
CONTINUOUS
 62
     2
100
AcDbLine
 10
229.796802
 20
28.142407
 30
0.0
 11
235.851337
 21
28.142407
 31
0.0
  0
LINE
  5
266
100
AcDbEntity
  8
_
  6
CONTINUOUS
 62
     2
100
AcDbLine
 10
230.689594
 20
27.748877
 30
0.0
 11
229.860156
 21
23.19353
 31
0.0
  0
LINE
  5
267
100
AcDbEntity
  8
_
  6
CONTINUOUS
 62
     2
100
AcDbLine
 10
231.161456
 20
27.748877
 30
0.0
 11
230.33205
 21
23.19353
 31
0.0
  0
LINE
  5
268
100
AcDbEntity
  8
_
  6
CONTINUOUS
 62
     2
100
AcDbLine
 10
231.577838
 20
27.748883
 30
0.0
 11
230.748004
 21
23.193524
 31
0.0
  0
LINE
  5
269
100
AcDbEntity
  8
_
  6
CONTINUOUS
 62
     2
100
AcDbLine
 10
232.340472
 20
27.742408
 30
0.0
 11
232.340472
 21
23.2
 31
0.0
  0
LINE
  5
26A
100
AcDbEntity
  8
_
  6
CONTINUOUS
 62
     2
100
AcDbLine
 10
232.844135
 20
27.742408
 30
0.0
 11
232.844135
 21
23.2
 31
0.0
  0
LINE
  5
26B
100
AcDbEntity
  8
_
  6
CONTINUOUS
 62
     3
100
AcDbLine
 10
233.387836
 20
27.742408
 30
0.0
 11
233.387836
 21
23.2
 31
0.0
  0
LINE
  5
26C
100
AcDbEntity
  8
_
  6
CONTINUOUS
 62
     2
100
AcDbLine
 10
234.069904
 20
27.748883
 30
0.0
 11
234.899738
 21
23.193524
 31
0.0
  0
LINE
  5
26D
100
AcDbEntity
  8
_
  6
CONTINUOUS
 62
     2
100
AcDbLine
 10
234.502185
 20
27.748883
 30
0.0
 11
235.332019
 21
23.193524
 31
0.0
  0
LINE
  5
26E
100
AcDbEntity
  8
_
  6
CONTINUOUS
 62
     2
100
AcDbLine
 10
235.014056
 20
27.748883
 30
0.0
 11
235.84389
 21
23.193524
 31
0.0
  0
LINE
  5
26F
100
AcDbEntity
  8
_
  6
CONTINUOUS
 62
     2
100
AcDbLine
 10
237.054523
 20
30.480031
 30
0.0
 11
242.764819
 21
30.480031
 31
0.0
  0
LINE
  5
270
100
AcDbEntity
  8
_
  6
CONTINUOUS
 62
     2
100
AcDbLine
 10
237.054523
 20
29.976033
 30
0.0
 11
242.948261
 21
29.976033
 31
0.0
  0
LINE
  5
271
100
AcDbEntity
  8
_
  6
CONTINUOUS
 62
     2
100
AcDbLine
 10
245.823322
 20
23.175877
 30
0.0
 11
242.868396
 21
31.294514
 31
0.0
  0
LINE
  5
272
100
AcDbEntity
  8
_
  6
CONTINUOUS
 62
     2
100
AcDbLine
 10
246.359393
 20
23.175879
 30
0.0
 11
243.40459
 21
31.294513
 31
0.0
  0
LINE
  5
273
100
AcDbEntity
  8
_
  6
CONTINUOUS
 62
     2
100
AcDbLine
 10
246.895465
 20
23.175879
 30
0.0
 11
243.940662
 21
31.294513
 31
0.0
  0
LINE
  5
274
100
AcDbEntity
  8
_
  6
CONTINUOUS
 62
     2
100
AcDbLine
 10
247.431537
 20
23.175872
 30
0.0
 11
244.476276
 21
31.294518
 31
0.0
  0
LINE
  5
275
100
AcDbEntity
  8
_
  6
CONTINUOUS
 62
     2
100
AcDbLine
 10
245.908618
 20
30.88003
 30
0.0
 11
245.908618
 21
31.270392
 31
0.0
  0
LINE
  5
276
100
AcDbEntity
  8
_
  6
CONTINUOUS
 62
     2
100
AcDbLine
 10
246.452319
 20
30.88003
 30
0.0
 11
246.452319
 21
31.270392
 31
0.0
  0
LINE
  5
277
100
AcDbEntity
  8
_
  6
CONTINUOUS
 62
     2
100
AcDbLine
 10
246.99599
 20
30.88003
 30
0.0
 11
246.99599
 21
31.270392
 31
0.0
  0
LINE
  5
278
100
AcDbEntity
  8
_
  6
CONTINUOUS
 62
     2
100
AcDbLine
 10
245.172748
 20
30.480031
 30
0.0
 11
247.544086
 21
30.480031
 31
0.0
  0
LINE
  5
279
100
AcDbEntity
  8
_
  6
CONTINUOUS
 62
     2
100
AcDbLine
 10
245.35622
 20
29.976033
 30
0.0
 11
247.544086
 21
29.976033
 31
0.0
  0
LINE
  5
27A
100
AcDbEntity
  8
_
  6
CONTINUOUS
 62
     2
100
AcDbLine
 10
237.659106
 20
28.07282
 30
0.0
 11
242.907275
 21
28.07282
 31
0.0
  0
LINE
  5
27B
100
AcDbEntity
  8
_
  6
CONTINUOUS
 62
     2
100
AcDbLine
 10
237.659106
 20
27.568791
 30
0.0
 11
242.907275
 21
27.568791
 31
0.0
  0
LINE
  5
27C
100
AcDbEntity
  8
_
  6
CONTINUOUS
 62
     2
100
AcDbLine
 10
239.558185
 20
27.168792
 30
0.0
 11
239.558185
 21
25.158231
 31
0.0
  0
LINE
  5
27D
100
AcDbEntity
  8
_
  6
CONTINUOUS
 62
     2
100
AcDbLine
 10
240.061847
 20
27.168792
 30
0.0
 11
240.061847
 21
25.265286
 31
0.0
  0
LINE
  5
27E
100
AcDbEntity
  8
_
  6
CONTINUOUS
 62
     2
100
AcDbLine
 10
240.565509
 20
27.168792
 30
0.0
 11
240.565509
 21
25.372344
 31
0.0
  0
LINE
  5
27F
100
AcDbEntity
  8
_
  6
CONTINUOUS
 62
     2
100
AcDbLine
 10
241.069202
 20
27.168792
 30
0.0
 11
241.069202
 21
25.479405
 31
0.0
  0
LINE
  5
280
100
AcDbEntity
  8
_
  6
CONTINUOUS
 62
     2
100
AcDbLine
 10
237.549457
 20
24.331263
 30
0.0
 11
243.016895
 21
25.493399
 31
0.0
  0
LINE
  5
281
100
AcDbEntity
  8
_
  6
CONTINUOUS
 62
     2
100
AcDbLine
 10
237.549457
 20
23.776006
 30
0.0
 11
243.016895
 21
24.93817
 31
0.0
  0
LINE
  5
282
100
AcDbEntity
  8
_
  6
CONTINUOUS
 62
     2
100
AcDbLine
 10
237.549457
 20
23.300746
 30
0.0
 11
243.016895
 21
24.462882
 31
0.0
  0
LINE
  5
283
100
AcDbEntity
  8
_
  6
CONTINUOUS
 62
     2
100
AcDbLine
 10
248.726611
 20
29.665189
 30
0.0
 11
253.903064
 21
31.39708
 31
0.0
  0
LINE
  5
284
100
AcDbEntity
  8
_
  6
CONTINUOUS
 62
     2
100
AcDbLine
 10
248.726611
 20
29.133725
 30
0.0
 11
253.903064
 21
30.865647
 31
0.0
  0
LINE
  5
285
100
AcDbEntity
  8
_
  6
CONTINUOUS
 62
     2
100
AcDbLine
 10
254.282397
 20
31.397078
 30
0.0
 11
259.458881
 21
29.665061
 31
0.0
  0
LINE
  5
286
100
AcDbEntity
  8
_
  6
CONTINUOUS
 62
     2
100
AcDbLine
 10
254.282397
 20
30.905646
 30
0.0
 11
259.458881
 21
29.173629
 31
0.0
  0
LINE
  5
287
100
AcDbEntity
  8
_
  6
CONTINUOUS
 62
     2
100
AcDbLine
 10
257.724994
 20
29.119221
 30
0.0
 11
250.460895
 21
29.119221
 31
0.0
  0
LINE
  5
288
100
AcDbEntity
  8
_
  6
CONTINUOUS
 62
     2
100
AcDbLine
 10
257.724994
 20
28.575192
 30
0.0
 11
250.460895
 21
28.575192
 31
0.0
  0
LINE
  5
289
100
AcDbEntity
  8
_
  6
CONTINUOUS
 62
     2
100
AcDbLine
 10
248.747272
 20
27.012784
 30
0.0
 11
259.43822
 21
27.012784
 31
0.0
  0
LINE
  5
28A
100
AcDbEntity
  8
_
  6
CONTINUOUS
 62
     2
100
AcDbLine
 10
248.747272
 20
26.548817
 30
0.0
 11
259.43822
 21
26.548817
 31
0.0
  0
LINE
  5
28B
100
AcDbEntity
  8
_
  6
CONTINUOUS
 62
     2
100
AcDbLine
 10
250.402667
 20
26.186307
 30
0.0
 11
249.382251
 21
23.998492
 31
0.0
  0
LINE
  5
28C
100
AcDbEntity
  8
_
  6
CONTINUOUS
 62
     2
100
AcDbLine
 10
251.038867
 20
26.186309
 30
0.0
 11
250.01842
 21
23.998492
 31
0.0
  0
LINE
  5
28D
100
AcDbEntity
  8
_
  6
CONTINUOUS
 62
     2
100
AcDbLine
 10
251.675067
 20
26.186309
 30
0.0
 11
250.65462
 21
23.998492
 31
0.0
  0
LINE
  5
28E
100
AcDbEntity
  8
_
  6
CONTINUOUS
 62
     2
100
AcDbLine
 10
256.510822
 20
26.186333
 30
0.0
 11
257.531665
 21
23.998467
 31
0.0
  0
LINE
  5
28F
100
AcDbEntity
  8
_
  6
CONTINUOUS
 62
     2
100
AcDbLine
 10
257.147418
 20
26.186284
 30
0.0
 11
258.167407
 21
23.998517
 31
0.0
  0
LINE
  5
290
100
AcDbEntity
  8
_
  6
CONTINUOUS
 62
     2
100
AcDbLine
 10
257.783984
 20
26.186263
 30
0.0
 11
258.803638
 21
23.998538
 31
0.0
  0
LINE
  5
291
100
AcDbEntity
  8
_
  6
CONTINUOUS
 62
     2
100
AcDbLine
 10
249.137073
 20
23.635983
 30
0.0
 11
259.048419
 21
23.635983
 31
0.0
  0
LINE
  5
292
100
AcDbEntity
  8
_
  6
CONTINUOUS
 62
     2
100
AcDbLine
 10
248.902057
 20
23.131985
 30
0.0
 11
259.283435
 21
23.131985
 31
0.0
  0
LINE
  5
293
100
AcDbEntity
  8
_
  6
CONTINUOUS
 62
     2
100
AcDbLine
 10
262.479572
 20
30.88003
 30
0.0
 11
262.479572
 21
31.270392
 31
0.0
  0
LINE
  5
294
100
AcDbEntity
  8
_
  6
CONTINUOUS
 62
     2
100
AcDbLine
 10
263.063251
 20
30.88003
 30
0.0
 11
263.063251
 21
31.270392
 31
0.0
  0
LINE
  5
295
100
AcDbEntity
  8
_
  6
CONTINUOUS
 62
     2
100
AcDbLine
 10
263.64696
 20
30.88003
 30
0.0
 11
263.64696
 21
31.270392
 31
0.0
  0
LINE
  5
296
100
AcDbEntity
  8
_
  6
CONTINUOUS
 62
     2
100
AcDbLine
 10
260.641376
 20
30.480031
 30
0.0
 11
265.217578
 21
30.480031
 31
0.0
  0
LINE
  5
297
100
AcDbEntity
  8
_
  6
CONTINUOUS
 62
     2
100
AcDbLine
 10
260.641376
 20
29.976033
 30
0.0
 11
264.864764
 21
29.976033
 31
0.0
  0
LINE
  5
298
100
AcDbEntity
  8
_
  6
CONTINUOUS
 62
     2
100
AcDbLine
 10
263.275836
 20
29.648335
 30
0.0
 11
260.470752
 21
25.640944
 31
0.0
  0
LINE
  5
299
100
AcDbEntity
  8
_
  6
CONTINUOUS
 62
     2
100
AcDbLine
 10
263.931323
 20
29.64836
 30
0.0
 11
260.470782
 21
24.705703
 31
0.0
  0
LINE
  5
29A
100
AcDbEntity
  8
_
  6
CONTINUOUS
 62
     2
100
AcDbLine
 10
264.547595
 20
29.648354
 30
0.0
 11
260.470782
 21
23.825146
 31
0.0
  0
LINE
  5
29B
100
AcDbEntity
  8
_
  6
CONTINUOUS
 62
     2
100
AcDbLine
 10
263.585986
 20
27.577382
 30
0.0
 11
265.357349
 21
26.336928
 31
0.0
  0
LINE
  5
29C
100
AcDbEntity
  8
_
  6
CONTINUOUS
 62
     2
100
AcDbLine
 10
263.296893
 20
27.164399
 30
0.0
 11
265.357318
 21
25.721598
 31
0.0
  0
LINE
  5
29D
100
AcDbEntity
  8
_
  6
CONTINUOUS
 62
     2
100
AcDbLine
 10
262.989001
 20
26.724625
 30
0.0
 11
265.357318
 21
25.0663
 31
0.0
  0
LINE
  5
29E
100
AcDbEntity
  8
_
  6
CONTINUOUS
 62
     2
100
AcDbLine
 10
262.479572
 20
26.294446
 30
0.0
 11
262.479572
 21
23.2
 31
0.0
  0
LINE
  5
29F
100
AcDbEntity
  8
_
  6
CONTINUOUS
 62
     2
100
AcDbLine
 10
263.063251
 20
26.272631
 30
0.0
 11
263.063251
 21
23.2
 31
0.0
  0
LINE
  5
2A0
100
AcDbEntity
  8
_
  6
CONTINUOUS
 62
     2
100
AcDbLine
 10
263.64696
 20
25.863913
 30
0.0
 11
263.64696
 21
23.2
 31
0.0
  0
LINE
  5
2A1
100
AcDbEntity
  8
_
  6
CONTINUOUS
 62
     2
100
AcDbLine
 10
267.922748
 20
24.035983
 30
0.0
 11
267.922748
 21
31.270392
 31
0.0
  0
LINE
  5
2A2
100
AcDbEntity
  8
_
  6
CONTINUOUS
 62
     2
100
AcDbLine
 10
268.506427
 20
24.035983
 30
0.0
 11
268.506427
 21
31.270392
 31
0.0
  0
LINE
  5
2A3
100
AcDbEntity
  8
_
  6
CONTINUOUS
 62
     2
100
AcDbLine
 10
269.090137
 20
24.035983
 30
0.0
 11
269.090137
 21
31.270392
 31
0.0
  0
LINE
  5
2A4
100
AcDbEntity
  8
_
  6
CONTINUOUS
 62
     2
100
AcDbLine
 10
266.084979
 20
29.068806
 30
0.0
 11
267.522754
 21
29.068806
 31
0.0
  0
LINE
  5
2A5
100
AcDbEntity
  8
_
  6
CONTINUOUS
 62
     2
100
AcDbLine
 10
266.084979
 20
28.564839
 30
0.0
 11
267.522754
 21
28.564839
 31
0.0
  0
LINE
  5
2A6
100
AcDbEntity
  8
_
  6
CONTINUOUS
 62
     2
100
AcDbLine
 10
269.490131
 20
29.068806
 30
0.0
 11
270.929553
 21
29.068806
 31
0.0
  0
LINE
  5
2A7
100
AcDbEntity
  8
_
  6
CONTINUOUS
 62
     2
100
AcDbLine
 10
269.490131
 20
28.524838
 30
0.0
 11
270.929553
 21
28.524838
 31
0.0
  0
LINE
  5
2A8
100
AcDbEntity
  8
_
  6
CONTINUOUS
 62
     2
100
AcDbLine
 10
265.278186
 20
23.635983
 30
0.0
 11
271.131335
 21
23.635983
 31
0.0
  0
LINE
  5
2A9
100
AcDbEntity
  8
_
  6
CONTINUOUS
 62
     2
100
AcDbLine
 10
265.278186
 20
23.131985
 30
0.0
 11
271.131335
 21
23.131985
 31
0.0
  0
LINE
  5
2AA
100
AcDbEntity
  8
_
  6
CONTINUOUS
 62
     2
100
AcDbLine
 10
219.695117
 20
26.670728
 30
0.0
 11
223.956805
 21
26.670728
 31
0.0
  0
TEXT
  5
2AB
100
AcDbEntity
  8
_
  6
CONTINUOUS
 62
     6
100
AcDbText
 10
36.768823
 20
19.390015
 30
0.0
 40
5.0
  1
１２
 41
0.75768
  7
EXCADSTD
 72
     5
 11
45.036555
 21
19.390015
 31
0.0
100
AcDbText
  0
TEXT
  5
2AC
100
AcDbEntity
  8
_
  6
CONTINUOUS
 62
     6
100
AcDbText
 10
48.645215
 20
19.390015
 30
0.0
 40
5.0
  1
３
 41
0.89208
  7
EXCADSTD
 72
     5
 11
52.893215
 21
19.390015
 31
0.0
100
AcDbText
  0
TEXT
  5
2AD
100
AcDbEntity
  8
_
  6
CONTINUOUS
 62
     6
100
AcDbText
 10
57.768823
 20
19.390015
 30
0.0
 40
5.0
  1
３０
 41
0.75768
  7
EXCADSTD
 72
     5
 11
66.036555
 21
19.390015
 31
0.0
100
AcDbText
  0
LINE
  5
2AE
100
AcDbEntity
  8
_
  6
CONTINUOUS
 62
     6
100
AcDbLine
 10
400.0
 20
37.0
 30
0.0
 11
150.0
 21
37.0
 31
0.0
  0
TEXT
  5
2AF
100
AcDbEntity
  8
_
  6
CONTINUOUS
 62
     2
100
AcDbText
 10
194.2
 20
41.7
 30
0.0
 40
13.0
  1
化粧鏡
 41
1.076923
  7
EXCADSTD
 72
     5
 11
244.2
 21
41.7
 31
0.0
100
AcDbText
  0
TEXT
  5
2B0
100
AcDbEntity
  8
_
  6
CONTINUOUS
 62
     7
100
AcDbText
 10
290.85
 20
20.15
 30
0.0
 40
14.0
  1
Ｍ０１０１０８０
 41
0.795
  7
EXCADSTD
 72
     5
 11
396.85
 21
20.15
 31
0.0
100
AcDbText
  0
TEXT
  5
2B1
100
AcDbEntity
  8
_
  6
CONTINUOUS
 62
     2
100
AcDbText
 10
306.400001
 20
42.35
 30
0.0
 40
13.0
  1
ＮＭ１
 41
0.801231
  7
EXCADSTD
 72
     5
 11
343.599999
 21
42.35
 31
0.0
100
AcDbText
  0
TEXT
  5
2B2
100
AcDbEntity
  8
_
  6
CONTINUOUS
 62
     6
100
AcDbText
 10
41.3
 20
34.0
 30
0.0
 40
10.0
  1
宮田
 41
0.8568
  7
EXCADSTD
 72
     5
 11
59.99864
 21
34.0
 31
0.0
100
AcDbText
  0
TEXT
  5
2B3
100
AcDbEntity
  8
_
  6
CONTINUOUS
 62
     6
100
AcDbText
 10
100.9
 20
34.0
 30
0.0
 40
10.0
  1
神谷
 41
0.8568
  7
EXCADSTD
 72
     5
 11
119.59864
 21
34.0
 31
0.0
100
AcDbText
  0
TEXT
  5
2B4
100
AcDbEntity
  8
_
  6
CONTINUOUS
 62
     6
100
AcDbText
 10
126.9
 20
34.0
 30
0.0
 40
10.0
  1
岩田
 41
0.8568
  7
EXCADSTD
 72
     5
 11
145.59864
 21
34.0
 31
0.0
100
AcDbText
  0
LINE
  5
2B5
100
AcDbEntity
  8
_2
  6
CONTINUOUS
 62
     7
100
AcDbLine
 10
352.0
 20
511.0
 30
0.0
 11
357.0
 21
511.0
 31
0.0
  0
ARC
  5
2B6
100
AcDbEntity
  8
_2
  6
EXLTYPE2
 62
     6
100
AcDbCircle
 10
307.0
 20
486.0
 30
0.0
 40
2.0
100
AcDbArc
 50
270.0
 51
0.0
  0
ARC
  5
2B7
100
AcDbEntity
  8
_2
  6
EXLTYPE2
 62
     6
100
AcDbCircle
 10
281.0
 20
486.0
 30
0.0
 40
2.0
100
AcDbArc
 50
180.0
 51
270.0
  0
ARC
  5
2B8
100
AcDbEntity
  8
_2
  6
EXLTYPE2
 62
     6
100
AcDbCircle
 10
294.0
 20
491.5
 30
0.0
 40
2.5
100
AcDbArc
 50
180.0
 51
0.0
  0
ARC
  5
2B9
100
AcDbEntity
  8
_2
  6
CONTINUOUS
 62
     6
100
AcDbCircle
 10
307.0
 20
506.0
 30
0.0
 40
2.0
100
AcDbArc
 50
270.0
 51
0.0
  0
ARC
  5
2BA
100
AcDbEntity
  8
_2
  6
CONTINUOUS
 62
     6
100
AcDbCircle
 10
281.0
 20
506.0
 30
0.0
 40
2.0
100
AcDbArc
 50
180.0
 51
270.0
  0
LINE
  5
2BB
100
AcDbEntity
  8
_2
  6
EXLTYPE2
 62
     6
100
AcDbLine
 10
307.0
 20
484.0
 30
0.0
 11
281.0
 21
484.0
 31
0.0
  0
LINE
  5
2BC
100
AcDbEntity
  8
_2
  6
EXLTYPE2
 62
     6
100
AcDbLine
 10
309.0
 20
506.0
 30
0.0
 11
309.0
 21
486.0
 31
0.0
  0
LINE
  5
2BD
100
AcDbEntity
  8
_2
  6
EXLTYPE2
 62
     6
100
AcDbLine
 10
279.0
 20
506.0
 30
0.0
 11
279.0
 21
486.0
 31
0.0
  0
LINE
  5
2BE
100
AcDbEntity
  8
_2
  6
CONTINUOUS
 62
     6
100
AcDbLine
 10
309.0
 20
512.0
 30
0.0
 11
279.0
 21
512.0
 31
0.0
  0
LINE
  5
2BF
100
AcDbEntity
  8
_2
  6
CONTINUOUS
 62
     6
100
AcDbLine
 10
307.0
 20
504.0
 30
0.0
 11
281.0
 21
504.0
 31
0.0
  0
LINE
  5
2C0
100
AcDbEntity
  8
_2
  6
CONTINUOUS
 62
     6
100
AcDbLine
 10
309.0
 20
512.0
 30
0.0
 11
309.0
 21
506.0
 31
0.0
  0
LINE
  5
2C1
100
AcDbEntity
  8
_2
  6
CONTINUOUS
 62
     6
100
AcDbLine
 10
279.0
 20
512.0
 30
0.0
 11
279.0
 21
506.0
 31
0.0
  0
LINE
  5
2C2
100
AcDbEntity
  8
_2
  6
CONTINUOUS
 62
     7
100
AcDbLine
 10
309.3
 20
511.0
 30
0.0
 11
322.0
 21
511.0
 31
0.0
  0
LINE
  5
2C3
100
AcDbEntity
  8
_2
  6
CONTINUOUS
 62
     3
100
AcDbLine
 10
294.0
 20
507.0
 30
0.0
 11
309.74
 21
507.0
 31
0.0
  0
LINE
  5
2C4
100
AcDbEntity
  8
_2
  6
CONTINUOUS
 62
     3
100
AcDbLine
 10
279.6
 20
504.0
 30
0.0
 11
263.0
 21
504.0
 31
0.0
  0
LINE
  5
2C5
100
AcDbEntity
  8
_2
  6
CONTINUOUS
 62
     3
100
AcDbLine
 10
279.6
 20
484.0
 30
0.0
 11
251.0
 21
484.0
 31
0.0
  0
LINE
  5
2C6
100
AcDbEntity
  8
_2
  6
CONTINUOUS
 62
     3
100
AcDbLine
 10
277.6
 20
512.0
 30
0.0
 11
251.0
 21
512.0
 31
0.0
  0
LINE
  5
2C7
100
AcDbEntity
  8
_2
  6
CONTINUOUS
 62
     3
100
AcDbLine
 10
279.0
 20
484.6
 30
0.0
 11
279.0
 21
457.4
 31
0.0
  0
LINE
  5
2C8
100
AcDbEntity
  8
_2
  6
CONTINUOUS
 62
     3
100
AcDbLine
 10
309.0
 20
484.6
 30
0.0
 11
309.0
 21
457.4
 31
0.0
  0
LINE
  5
2C9
100
AcDbEntity
  8
_2
  6
CONTINUOUS
 62
     7
100
AcDbLine
 10
54.0
 20
511.0
 30
0.0
 11
66.7
 21
511.0
 31
0.0
  0
LINE
  5
2CA
100
AcDbEntity
  8
_2
  6
CONTINUOUS
 62
     3
100
AcDbLine
 10
323.4
 20
511.0
 30
0.0
 11
342.0
 21
511.0
 31
0.0
  0
LINE
  5
2CB
100
AcDbEntity
  8
_2
  6
CONTINUOUS
 62
     3
100
AcDbLine
 10
322.0
 20
512.4
 30
0.0
 11
322.0
 21
527.0
 31
0.0
  0
LINE
  5
2CC
100
AcDbEntity
  8
_2
  6
CONTINUOUS
 62
     3
100
AcDbLine
 10
54.0
 20
512.4
 30
0.0
 11
54.0
 21
528.0
 31
0.0
  0
LINE
  5
2CD
100
AcDbEntity
  8
_2
  6
CONTINUOUS
 62
     6
100
AcDbLine
 10
361.0
 20
511.0
 30
0.0
 11
361.0
 21
484.0
 31
0.0
  0
LINE
  5
2CE
100
AcDbEntity
  8
_2
  6
CONTINUOUS
 62
     6
100
AcDbLine
 10
357.0
 20
511.0
 30
0.0
 11
360.0
 21
511.0
 31
0.0
  0
LINE
  5
2CF
100
AcDbEntity
  8
_2
  6
CONTINUOUS
 62
     6
100
AcDbLine
 10
352.0
 20
512.0
 30
0.0
 11
360.0
 21
512.0
 31
0.0
  0
LINE
  5
2D0
100
AcDbEntity
  8
_2
  6
CONTINUOUS
 62
     6
100
AcDbLine
 10
351.0
 20
504.0
 30
0.0
 11
351.0
 21
511.0
 31
0.0
  0
LINE
  5
2D1
100
AcDbEntity
  8
_2
  6
CONTINUOUS
 62
     6
100
AcDbLine
 10
360.0
 20
511.0
 30
0.0
 11
360.0
 21
484.0
 31
0.0
  0
LINE
  5
2D2
100
AcDbEntity
  8
_2
  6
CONTINUOUS
 62
     6
100
AcDbLine
 10
352.0
 20
512.0
 30
0.0
 11
351.0
 21
511.0
 31
0.0
  0
LINE
  5
2D3
100
AcDbEntity
  8
_2
  6
CONTINUOUS
 62
     6
100
AcDbLine
 10
357.0
 20
484.0
 30
0.0
 11
361.0
 21
484.0
 31
0.0
  0
LINE
  5
2D4
100
AcDbEntity
  8
_2
  6
CONTINUOUS
 62
     6
100
AcDbLine
 10
357.0
 20
489.0
 30
0.0
 11
361.0
 21
489.0
 31
0.0
  0
CIRCLE
  5
2D5
100
AcDbEntity
  8
_2
  6
CONTINUOUS
 62
     6
100
AcDbCircle
 10
357.88
 20
486.64
 30
0.0
 40
0.141421
  0
CIRCLE
  5
2D6
100
AcDbEntity
  8
_2
  6
CONTINUOUS
 62
     6
100
AcDbCircle
 10
357.94
 20
485.04
 30
0.0
 40
0.141421
  0
CIRCLE
  5
2D7
100
AcDbEntity
  8
_2
  6
CONTINUOUS
 62
     6
100
AcDbCircle
 10
359.16
 20
485.7
 30
0.0
 40
0.141421
  0
CIRCLE
  5
2D8
100
AcDbEntity
  8
_2
  6
CONTINUOUS
 62
     6
100
AcDbCircle
 10
359.18
 20
487.5
 30
0.0
 40
0.141421
  0
CIRCLE
  5
2D9
100
AcDbEntity
  8
_2
  6
CONTINUOUS
 62
     6
100
AcDbCircle
 10
357.94
 20
488.12
 30
0.0
 40
0.141421
  0
LINE
  5
2DA
100
AcDbEntity
  8
_2
  6
CONTINUOUS
 62
     6
100
AcDbLine
 10
351.0
 20
504.0
 30
0.0
 11
352.0
 21
504.0
 31
0.0
  0
ARC
  5
2DB
100
AcDbEntity
  8
_2
  6
EXLTYPE2
 62
     6
100
AcDbCircle
 10
69.0
 20
486.0
 30
0.0
 40
2.0
100
AcDbArc
 50
180.0
 51
270.0
  0
ARC
  5
2DC
100
AcDbEntity
  8
_2
  6
EXLTYPE2
 62
     6
100
AcDbCircle
 10
95.0
 20
486.0
 30
0.0
 40
2.0
100
AcDbArc
 50
270.0
 51
0.0
  0
ARC
  5
2DD
100
AcDbEntity
  8
_2
  6
CONTINUOUS
 62
     6
100
AcDbCircle
 10
69.0
 20
506.0
 30
0.0
 40
2.0
100
AcDbArc
 50
180.0
 51
270.0
  0
ARC
  5
2DE
100
AcDbEntity
  8
_2
  6
CONTINUOUS
 62
     6
100
AcDbCircle
 10
95.0
 20
506.0
 30
0.0
 40
2.0
100
AcDbArc
 50
270.0
 51
0.0
  0
LINE
  5
2DF
100
AcDbEntity
  8
_2
  6
EXLTYPE2
 62
     6
100
AcDbLine
 10
69.0
 20
484.0
 30
0.0
 11
95.0
 21
484.0
 31
0.0
  0
LINE
  5
2E0
100
AcDbEntity
  8
_2
  6
EXLTYPE2
 62
     6
100
AcDbLine
 10
67.0
 20
506.0
 30
0.0
 11
67.0
 21
486.0
 31
0.0
  0
LINE
  5
2E1
100
AcDbEntity
  8
_2
  6
EXLTYPE2
 62
     6
100
AcDbLine
 10
97.0
 20
506.0
 30
0.0
 11
97.0
 21
486.0
 31
0.0
  0
LINE
  5
2E2
100
AcDbEntity
  8
_2
  6
CONTINUOUS
 62
     6
100
AcDbLine
 10
67.0
 20
512.0
 30
0.0
 11
97.0
 21
512.0
 31
0.0
  0
LINE
  5
2E3
100
AcDbEntity
  8
_2
  6
CONTINUOUS
 62
     6
100
AcDbLine
 10
69.0
 20
504.0
 30
0.0
 11
95.0
 21
504.0
 31
0.0
  0
LINE
  5
2E4
100
AcDbEntity
  8
_2
  6
CONTINUOUS
 62
     6
100
AcDbLine
 10
67.0
 20
512.0
 30
0.0
 11
67.0
 21
506.0
 31
0.0
  0
LINE
  5
2E5
100
AcDbEntity
  8
_2
  6
CONTINUOUS
 62
     6
100
AcDbLine
 10
97.0
 20
512.0
 30
0.0
 11
97.0
 21
506.0
 31
0.0
  0
ARC
  5
2E6
100
AcDbEntity
  8
_2
  6
EXLTYPE2
 62
     6
100
AcDbCircle
 10
82.0
 20
491.5
 30
0.0
 40
2.5
100
AcDbArc
 50
180.0
 51
0.0
  0
CIRCLE
  5
2E7
100
AcDbEntity
  8
_2
  6
EXLTYPE2
 62
     6
100
AcDbCircle
 10
82.0
 20
504.5
 30
0.0
 40
4.0
  0
CIRCLE
  5
2E8
100
AcDbEntity
  8
_2
  6
EXLTYPE2
 62
     6
100
AcDbCircle
 10
294.0
 20
504.5
 30
0.0
 40
4.0
  0
LINE
  5
2E9
100
AcDbEntity
  8
_2
  6
EXLTYPE2
 62
     6
100
AcDbLine
 10
79.5
 20
491.5
 30
0.0
 11
79.5
 21
501.377501
 31
0.0
  0
LINE
  5
2EA
100
AcDbEntity
  8
_2
  6
EXLTYPE2
 62
     6
100
AcDbLine
 10
84.5
 20
491.5
 30
0.0
 11
84.5
 21
501.377501
 31
0.0
  0
LINE
  5
2EB
100
AcDbEntity
  8
_2
  6
EXLTYPE2
 62
     6
100
AcDbLine
 10
291.5
 20
491.5
 30
0.0
 11
291.5
 21
501.377501
 31
0.0
  0
LINE
  5
2EC
100
AcDbEntity
  8
_2
  6
EXLTYPE2
 62
     6
100
AcDbLine
 10
296.5
 20
491.5
 30
0.0
 11
296.5
 21
501.377501
 31
0.0
  0
LINE
  5
2ED
100
AcDbEntity
  8
_2
  6
EXLTYPE2
 62
     6
100
AcDbLine
 10
293.6
 20
506.75
 30
0.0
 11
294.4
 21
506.75
 31
0.0
  0
LINE
  5
2EE
100
AcDbEntity
  8
_2
  6
EXLTYPE2
 62
     6
100
AcDbLine
 10
293.6
 20
502.25
 30
0.0
 11
294.4
 21
502.25
 31
0.0
  0
LINE
  5
2EF
100
AcDbEntity
  8
_2
  6
EXLTYPE2
 62
     6
100
AcDbLine
 10
291.75
 20
504.1
 30
0.0
 11
291.75
 21
504.9
 31
0.0
  0
LINE
  5
2F0
100
AcDbEntity
  8
_2
  6
EXLTYPE2
 62
     6
100
AcDbLine
 10
296.25
 20
504.1
 30
0.0
 11
296.25
 21
504.9
 31
0.0
  0
LINE
  5
2F1
100
AcDbEntity
  8
_2
  6
EXLTYPE2
 62
     6
100
AcDbLine
 10
291.75
 20
504.9
 30
0.0
 11
292.84635
 21
504.98635
 31
0.0
  0
LINE
  5
2F2
100
AcDbEntity
  8
_2
  6
EXLTYPE2
 62
     6
100
AcDbLine
 10
293.6
 20
506.75
 30
0.0
 11
293.51365
 21
505.65365
 31
0.0
  0
LINE
  5
2F3
100
AcDbEntity
  8
_2
  6
EXLTYPE2
 62
     6
100
AcDbLine
 10
292.84635
 20
504.98635
 30
0.0
 11
293.51365
 21
505.65365
 31
0.0
  0
LINE
  5
2F4
100
AcDbEntity
  8
_2
  6
EXLTYPE2
 62
     6
100
AcDbLine
 10
293.51365
 20
503.34635
 30
0.0
 11
292.84635
 21
504.01365
 31
0.0
  0
LINE
  5
2F5
100
AcDbEntity
  8
_2
  6
EXLTYPE2
 62
     6
100
AcDbLine
 10
295.15365
 20
504.01365
 30
0.0
 11
294.48635
 21
503.34635
 31
0.0
  0
LINE
  5
2F6
100
AcDbEntity
  8
_2
  6
EXLTYPE2
 62
     6
100
AcDbLine
 10
294.48635
 20
505.65365
 30
0.0
 11
295.15365
 21
504.98635
 31
0.0
  0
LINE
  5
2F7
100
AcDbEntity
  8
_2
  6
EXLTYPE2
 62
     6
100
AcDbLine
 10
291.75
 20
504.1
 30
0.0
 11
292.84635
 21
504.01365
 31
0.0
  0
LINE
  5
2F8
100
AcDbEntity
  8
_2
  6
EXLTYPE2
 62
     6
100
AcDbLine
 10
293.6
 20
502.25
 30
0.0
 11
293.51365
 21
503.34635
 31
0.0
  0
LINE
  5
2F9
100
AcDbEntity
  8
_2
  6
EXLTYPE2
 62
     6
100
AcDbLine
 10
294.4
 20
502.25
 30
0.0
 11
294.48635
 21
503.34635
 31
0.0
  0
LINE
  5
2FA
100
AcDbEntity
  8
_2
  6
EXLTYPE2
 62
     6
100
AcDbLine
 10
296.25
 20
504.1
 30
0.0
 11
295.15365
 21
504.01365
 31
0.0
  0
LINE
  5
2FB
100
AcDbEntity
  8
_2
  6
EXLTYPE2
 62
     6
100
AcDbLine
 10
296.25
 20
504.9
 30
0.0
 11
295.15365
 21
504.98635
 31
0.0
  0
LINE
  5
2FC
100
AcDbEntity
  8
_2
  6
EXLTYPE2
 62
     6
100
AcDbLine
 10
294.4
 20
506.75
 30
0.0
 11
294.48635
 21
505.65365
 31
0.0
  0
LINE
  5
2FD
100
AcDbEntity
  8
_2
  6
EXLTYPE2
 62
     6
100
AcDbLine
 10
81.6
 20
506.75
 30
0.0
 11
82.4
 21
506.75
 31
0.0
  0
LINE
  5
2FE
100
AcDbEntity
  8
_2
  6
EXLTYPE2
 62
     6
100
AcDbLine
 10
81.6
 20
502.25
 30
0.0
 11
82.4
 21
502.25
 31
0.0
  0
LINE
  5
2FF
100
AcDbEntity
  8
_2
  6
EXLTYPE2
 62
     6
100
AcDbLine
 10
79.75
 20
504.1
 30
0.0
 11
79.75
 21
504.9
 31
0.0
  0
LINE
  5
300
100
AcDbEntity
  8
_2
  6
EXLTYPE2
 62
     6
100
AcDbLine
 10
84.25
 20
504.1
 30
0.0
 11
84.25
 21
504.9
 31
0.0
  0
LINE
  5
301
100
AcDbEntity
  8
_2
  6
EXLTYPE2
 62
     6
100
AcDbLine
 10
79.75
 20
504.9
 30
0.0
 11
80.84635
 21
504.98635
 31
0.0
  0
LINE
  5
302
100
AcDbEntity
  8
_2
  6
EXLTYPE2
 62
     6
100
AcDbLine
 10
81.6
 20
506.75
 30
0.0
 11
81.51365
 21
505.65365
 31
0.0
  0
LINE
  5
303
100
AcDbEntity
  8
_2
  6
EXLTYPE2
 62
     6
100
AcDbLine
 10
80.84635
 20
504.98635
 30
0.0
 11
81.51365
 21
505.65365
 31
0.0
  0
LINE
  5
304
100
AcDbEntity
  8
_2
  6
EXLTYPE2
 62
     6
100
AcDbLine
 10
81.51365
 20
503.34635
 30
0.0
 11
80.84635
 21
504.01365
 31
0.0
  0
LINE
  5
305
100
AcDbEntity
  8
_2
  6
EXLTYPE2
 62
     6
100
AcDbLine
 10
83.15365
 20
504.01365
 30
0.0
 11
82.48635
 21
503.34635
 31
0.0
  0
LINE
  5
306
100
AcDbEntity
  8
_2
  6
EXLTYPE2
 62
     6
100
AcDbLine
 10
82.48635
 20
505.65365
 30
0.0
 11
83.15365
 21
504.98635
 31
0.0
  0
LINE
  5
307
100
AcDbEntity
  8
_2
  6
EXLTYPE2
 62
     6
100
AcDbLine
 10
79.75
 20
504.1
 30
0.0
 11
80.84635
 21
504.01365
 31
0.0
  0
LINE
  5
308
100
AcDbEntity
  8
_2
  6
EXLTYPE2
 62
     6
100
AcDbLine
 10
81.6
 20
502.25
 30
0.0
 11
81.51365
 21
503.34635
 31
0.0
  0
LINE
  5
309
100
AcDbEntity
  8
_2
  6
EXLTYPE2
 62
     6
100
AcDbLine
 10
82.4
 20
502.25
 30
0.0
 11
82.48635
 21
503.34635
 31
0.0
  0
LINE
  5
30A
100
AcDbEntity
  8
_2
  6
EXLTYPE2
 62
     6
100
AcDbLine
 10
84.25
 20
504.1
 30
0.0
 11
83.15365
 21
504.01365
 31
0.0
  0
LINE
  5
30B
100
AcDbEntity
  8
_2
  6
EXLTYPE2
 62
     6
100
AcDbLine
 10
84.25
 20
504.9
 30
0.0
 11
83.15365
 21
504.98635
 31
0.0
  0
LINE
  5
30C
100
AcDbEntity
  8
_2
  6
EXLTYPE2
 62
     6
100
AcDbLine
 10
82.4
 20
506.75
 30
0.0
 11
82.48635
 21
505.65365
 31
0.0
  0
ARC
  5
30D
100
AcDbEntity
  8
_2
  6
EXLTYPE2
 62
     6
100
AcDbCircle
 10
69.0
 20
127.0
 30
0.0
 40
2.0
100
AcDbArc
 50
90.0
 51
180.0
  0
LINE
  5
30E
100
AcDbEntity
  8
_2
  6
CONTINUOUS
 62
     7
100
AcDbLine
 10
54.0
 20
105.0
 30
0.0
 11
66.7
 21
105.0
 31
0.0
  0
ARC
  5
30F
100
AcDbEntity
  8
_2
  6
CONTINUOUS
 62
     6
100
AcDbCircle
 10
69.0
 20
107.0
 30
0.0
 40
2.0
100
AcDbArc
 50
90.0
 51
180.0
  0
ARC
  5
310
100
AcDbEntity
  8
_2
  6
CONTINUOUS
 62
     6
100
AcDbCircle
 10
95.0
 20
107.0
 30
0.0
 40
2.0
100
AcDbArc
 50
0.0
 51
90.0
  0
ARC
  5
311
100
AcDbEntity
  8
_2
  6
EXLTYPE2
 62
     6
100
AcDbCircle
 10
82.0
 20
109.0
 30
0.0
 40
2.5
100
AcDbArc
 50
180.0
 51
0.0
  0
LINE
  5
312
100
AcDbEntity
  8
_2
  6
CONTINUOUS
 62
     6
100
AcDbLine
 10
69.0
 20
109.0
 30
0.0
 11
95.0
 21
109.0
 31
0.0
  0
LINE
  5
313
100
AcDbEntity
  8
_2
  6
EXLTYPE2
 62
     6
100
AcDbLine
 10
69.0
 20
129.0
 30
0.0
 11
95.0
 21
129.0
 31
0.0
  0
LINE
  5
314
100
AcDbEntity
  8
_2
  6
CONTINUOUS
 62
     6
100
AcDbLine
 10
67.0
 20
101.0
 30
0.0
 11
97.0
 21
101.0
 31
0.0
  0
LINE
  5
315
100
AcDbEntity
  8
_2
  6
CONTINUOUS
 62
     6
100
AcDbLine
 10
67.0
 20
101.0
 30
0.0
 11
67.0
 21
107.0
 31
0.0
  0
LINE
  5
316
100
AcDbEntity
  8
_2
  6
EXLTYPE2
 62
     6
100
AcDbLine
 10
67.0
 20
107.0
 30
0.0
 11
67.0
 21
127.0
 31
0.0
  0
LINE
  5
317
100
AcDbEntity
  8
_2
  6
CONTINUOUS
 62
     6
100
AcDbLine
 10
97.0
 20
101.0
 30
0.0
 11
97.0
 21
107.0
 31
0.0
  0
LINE
  5
318
100
AcDbEntity
  8
_2
  6
EXLTYPE2
 62
     6
100
AcDbLine
 10
97.0
 20
107.0
 30
0.0
 11
97.0
 21
127.0
 31
0.0
  0
LINE
  5
319
100
AcDbEntity
  8
_2
  6
CONTINUOUS
 62
     7
100
AcDbLine
 10
352.0
 20
105.0
 30
0.0
 11
357.0
 21
105.0
 31
0.0
  0
ARC
  5
31A
100
AcDbEntity
  8
_2
  6
EXLTYPE2
 62
     6
100
AcDbCircle
 10
307.0
 20
127.0
 30
0.0
 40
2.0
100
AcDbArc
 50
0.0
 51
90.0
  0
ARC
  5
31B
100
AcDbEntity
  8
_2
  6
EXLTYPE2
 62
     6
100
AcDbCircle
 10
281.0
 20
127.0
 30
0.0
 40
2.0
100
AcDbArc
 50
90.0
 51
180.0
  0
ARC
  5
31C
100
AcDbEntity
  8
_2
  6
EXLTYPE2
 62
     6
100
AcDbCircle
 10
294.0
 20
109.0
 30
0.0
 40
2.5
100
AcDbArc
 50
180.0
 51
0.0
  0
ARC
  5
31D
100
AcDbEntity
  8
_2
  6
CONTINUOUS
 62
     6
100
AcDbCircle
 10
307.0
 20
107.0
 30
0.0
 40
2.0
100
AcDbArc
 50
0.0
 51
90.0
  0
ARC
  5
31E
100
AcDbEntity
  8
_2
  6
CONTINUOUS
 62
     6
100
AcDbCircle
 10
281.0
 20
107.0
 30
0.0
 40
2.0
100
AcDbArc
 50
90.0
 51
180.0
  0
LINE
  5
31F
100
AcDbEntity
  8
_2
  6
EXLTYPE2
 62
     6
100
AcDbLine
 10
307.0
 20
129.0
 30
0.0
 11
281.0
 21
129.0
 31
0.0
  0
LINE
  5
320
100
AcDbEntity
  8
_2
  6
EXLTYPE2
 62
     6
100
AcDbLine
 10
309.0
 20
107.0
 30
0.0
 11
309.0
 21
127.0
 31
0.0
  0
LINE
  5
321
100
AcDbEntity
  8
_2
  6
EXLTYPE2
 62
     6
100
AcDbLine
 10
279.0
 20
107.0
 30
0.0
 11
279.0
 21
127.0
 31
0.0
  0
LINE
  5
322
100
AcDbEntity
  8
_2
  6
CONTINUOUS
 62
     6
100
AcDbLine
 10
309.0
 20
101.0
 30
0.0
 11
279.0
 21
101.0
 31
0.0
  0
LINE
  5
323
100
AcDbEntity
  8
_2
  6
CONTINUOUS
 62
     6
100
AcDbLine
 10
307.0
 20
109.0
 30
0.0
 11
281.0
 21
109.0
 31
0.0
  0
LINE
  5
324
100
AcDbEntity
  8
_2
  6
CONTINUOUS
 62
     6
100
AcDbLine
 10
309.0
 20
101.0
 30
0.0
 11
309.0
 21
107.0
 31
0.0
  0
LINE
  5
325
100
AcDbEntity
  8
_2
  6
CONTINUOUS
 62
     6
100
AcDbLine
 10
279.0
 20
101.0
 30
0.0
 11
279.0
 21
107.0
 31
0.0
  0
LINE
  5
326
100
AcDbEntity
  8
_2
  6
CONTINUOUS
 62
     7
100
AcDbLine
 10
309.3
 20
105.0
 30
0.0
 11
322.0
 21
105.0
 31
0.0
  0
LINE
  5
327
100
AcDbEntity
  8
_2
  6
CONTINUOUS
 62
     3
100
AcDbLine
 10
323.4
 20
105.0
 30
0.0
 11
342.0
 21
105.0
 31
0.0
  0
LINE
  5
328
100
AcDbEntity
  8
_2
  6
CONTINUOUS
 62
     6
100
AcDbLine
 10
352.0
 20
101.0
 30
0.0
 11
351.0
 21
102.0
 31
0.0
  0
LINE
  5
329
100
AcDbEntity
  8
_2
  6
CONTINUOUS
 62
     6
100
AcDbLine
 10
352.0
 20
101.0
 30
0.0
 11
360.0
 21
101.0
 31
0.0
  0
LINE
  5
32A
100
AcDbEntity
  8
_2
  6
CONTINUOUS
 62
     6
100
AcDbLine
 10
360.0
 20
101.0
 30
0.0
 11
361.0
 21
102.0
 31
0.0
  0
LINE
  5
32B
100
AcDbEntity
  8
_2
  6
CONTINUOUS
 62
     6
100
AcDbLine
 10
357.0
 20
105.0
 30
0.0
 11
360.0
 21
105.0
 31
0.0
  0
LINE
  5
32C
100
AcDbEntity
  8
_2
  6
CONTINUOUS
 62
     6
100
AcDbLine
 10
360.0
 20
102.0
 30
0.0
 11
360.0
 21
129.0
 31
0.0
  0
LINE
  5
32D
100
AcDbEntity
  8
_2
  6
CONTINUOUS
 62
     6
100
AcDbLine
 10
361.0
 20
102.0
 30
0.0
 11
361.0
 21
129.0
 31
0.0
  0
LINE
  5
32E
100
AcDbEntity
  8
_2
  6
CONTINUOUS
 62
     6
100
AcDbLine
 10
357.0
 20
129.0
 30
0.0
 11
361.0
 21
129.0
 31
0.0
  0
CIRCLE
  5
32F
100
AcDbEntity
  8
_2
  6
CONTINUOUS
 62
     6
100
AcDbCircle
 10
359.18
 20
128.5
 30
0.0
 40
0.141421
  0
CIRCLE
  5
330
100
AcDbEntity
  8
_2
  6
CONTINUOUS
 62
     6
100
AcDbCircle
 10
357.94
 20
127.88
 30
0.0
 40
0.141421
  0
LINE
  5
331
100
AcDbEntity
  8
_2
  6
CONTINUOUS
 62
     6
100
AcDbLine
 10
351.0
 20
109.0
 30
0.0
 11
352.0
 21
109.0
 31
0.0
  0
LINE
  5
332
100
AcDbEntity
  8
_2
  6
CONTINUOUS
 62
     6
100
AcDbLine
 10
351.0
 20
109.0
 30
0.0
 11
351.0
 21
102.0
 31
0.0
  0
LINE
  5
333
100
AcDbEntity
  8
_2
  6
CONTINUOUS
 62
     6
100
AcDbLine
 10
352.0
 20
102.0
 30
0.0
 11
360.0
 21
102.0
 31
0.0
  0
LINE
  5
334
100
AcDbEntity
  8
_2
  6
CONTINUOUS
 62
     6
100
AcDbLine
 10
352.0
 20
102.0
 30
0.0
 11
352.0
 21
105.0
 31
0.0
  0
LINE
  5
335
100
AcDbEntity
  8
_2
  6
CONTINUOUS
 62
     6
100
AcDbLine
 10
357.0
 20
107.0
 30
0.0
 11
361.0
 21
107.0
 31
0.0
  0
CIRCLE
  5
336
100
AcDbEntity
  8
_2
  6
CONTINUOUS
 62
     6
100
AcDbCircle
 10
359.06
 20
126.98
 30
0.0
 40
0.141421
  0
CIRCLE
  5
337
100
AcDbEntity
  8
_2
  6
CONTINUOUS
 62
     6
100
AcDbCircle
 10
358.08
 20
126.4
 30
0.0
 40
0.141421
  0
CIRCLE
  5
338
100
AcDbEntity
  8
_2
  6
CONTINUOUS
 62
     6
100
AcDbCircle
 10
359.36
 20
125.6
 30
0.0
 40
0.141421
  0
CIRCLE
  5
339
100
AcDbEntity
  8
_2
  6
CONTINUOUS
 62
     6
100
AcDbCircle
 10
353.44
 20
104.2
 30
0.0
 40
0.141421
  0
CIRCLE
  5
33A
100
AcDbEntity
  8
_2
  6
CONTINUOUS
 62
     6
100
AcDbCircle
 10
355.82
 20
104.14
 30
0.0
 40
0.141421
  0
CIRCLE
  5
33B
100
AcDbEntity
  8
_2
  6
CONTINUOUS
 62
     6
100
AcDbCircle
 10
358.08
 20
104.14
 30
0.0
 40
0.141421
  0
CIRCLE
  5
33C
100
AcDbEntity
  8
_2
  6
CONTINUOUS
 62
     6
100
AcDbCircle
 10
354.48
 20
102.8
 30
0.0
 40
0.141421
  0
CIRCLE
  5
33D
100
AcDbEntity
  8
_2
  6
CONTINUOUS
 62
     6
100
AcDbCircle
 10
357.1
 20
102.64
 30
0.0
 40
0.141421
  0
CIRCLE
  5
33E
100
AcDbEntity
  8
_2
  6
CONTINUOUS
 62
     6
100
AcDbCircle
 10
359.18
 20
102.7
 30
0.0
 40
0.141421
  0
CIRCLE
  5
33F
100
AcDbEntity
  8
_2
  6
CONTINUOUS
 62
     6
100
AcDbCircle
 10
358.08
 20
106.22
 30
0.0
 40
0.141421
  0
CIRCLE
  5
340
100
AcDbEntity
  8
_2
  6
CONTINUOUS
 62
     6
100
AcDbCircle
 10
359.18
 20
105.6
 30
0.0
 40
0.141421
  0
CIRCLE
  5
341
100
AcDbEntity
  8
_2
  6
EXLTYPE2
 62
     6
100
AcDbCircle
 10
294.0
 20
122.0
 30
0.0
 40
4.0
  0
CIRCLE
  5
342
100
AcDbEntity
  8
_2
  6
EXLTYPE2
 62
     6
100
AcDbCircle
 10
82.0
 20
122.0
 30
0.0
 40
4.0
  0
LINE
  5
343
100
AcDbEntity
  8
_2
  6
EXLTYPE2
 62
     6
100
AcDbLine
 10
79.5
 20
109.0
 30
0.0
 11
79.5
 21
118.877501
 31
0.0
  0
LINE
  5
344
100
AcDbEntity
  8
_2
  6
EXLTYPE2
 62
     6
100
AcDbLine
 10
84.5
 20
109.0
 30
0.0
 11
84.5
 21
118.877501
 31
0.0
  0
LINE
  5
345
100
AcDbEntity
  8
_2
  6
EXLTYPE2
 62
     6
100
AcDbLine
 10
81.6
 20
124.25
 30
0.0
 11
82.4
 21
124.25
 31
0.0
  0
LINE
  5
346
100
AcDbEntity
  8
_2
  6
EXLTYPE2
 62
     6
100
AcDbLine
 10
81.6
 20
119.75
 30
0.0
 11
82.4
 21
119.75
 31
0.0
  0
LINE
  5
347
100
AcDbEntity
  8
_2
  6
EXLTYPE2
 62
     6
100
AcDbLine
 10
79.75
 20
121.6
 30
0.0
 11
79.75
 21
122.4
 31
0.0
  0
LINE
  5
348
100
AcDbEntity
  8
_2
  6
EXLTYPE2
 62
     6
100
AcDbLine
 10
84.25
 20
121.6
 30
0.0
 11
84.25
 21
122.4
 31
0.0
  0
LINE
  5
349
100
AcDbEntity
  8
_2
  6
EXLTYPE2
 62
     6
100
AcDbLine
 10
79.75
 20
122.4
 30
0.0
 11
80.84635
 21
122.48635
 31
0.0
  0
LINE
  5
34A
100
AcDbEntity
  8
_2
  6
EXLTYPE2
 62
     6
100
AcDbLine
 10
81.6
 20
124.25
 30
0.0
 11
81.51365
 21
123.15365
 31
0.0
  0
LINE
  5
34B
100
AcDbEntity
  8
_2
  6
EXLTYPE2
 62
     6
100
AcDbLine
 10
80.84635
 20
122.48635
 30
0.0
 11
81.51365
 21
123.15365
 31
0.0
  0
LINE
  5
34C
100
AcDbEntity
  8
_2
  6
EXLTYPE2
 62
     6
100
AcDbLine
 10
81.51365
 20
120.84635
 30
0.0
 11
80.84635
 21
121.51365
 31
0.0
  0
LINE
  5
34D
100
AcDbEntity
  8
_2
  6
EXLTYPE2
 62
     6
100
AcDbLine
 10
83.15365
 20
121.51365
 30
0.0
 11
82.48635
 21
120.84635
 31
0.0
  0
LINE
  5
34E
100
AcDbEntity
  8
_2
  6
EXLTYPE2
 62
     6
100
AcDbLine
 10
82.48635
 20
123.15365
 30
0.0
 11
83.15365
 21
122.48635
 31
0.0
  0
LINE
  5
34F
100
AcDbEntity
  8
_2
  6
EXLTYPE2
 62
     6
100
AcDbLine
 10
79.75
 20
121.6
 30
0.0
 11
80.84635
 21
121.51365
 31
0.0
  0
LINE
  5
350
100
AcDbEntity
  8
_2
  6
EXLTYPE2
 62
     6
100
AcDbLine
 10
81.6
 20
119.75
 30
0.0
 11
81.51365
 21
120.84635
 31
0.0
  0
LINE
  5
351
100
AcDbEntity
  8
_2
  6
EXLTYPE2
 62
     6
100
AcDbLine
 10
82.4
 20
119.75
 30
0.0
 11
82.48635
 21
120.84635
 31
0.0
  0
LINE
  5
352
100
AcDbEntity
  8
_2
  6
EXLTYPE2
 62
     6
100
AcDbLine
 10
84.25
 20
121.6
 30
0.0
 11
83.15365
 21
121.51365
 31
0.0
  0
LINE
  5
353
100
AcDbEntity
  8
_2
  6
EXLTYPE2
 62
     6
100
AcDbLine
 10
84.25
 20
122.4
 30
0.0
 11
83.15365
 21
122.48635
 31
0.0
  0
LINE
  5
354
100
AcDbEntity
  8
_2
  6
EXLTYPE2
 62
     6
100
AcDbLine
 10
82.4
 20
124.25
 30
0.0
 11
82.48635
 21
123.15365
 31
0.0
  0
LINE
  5
355
100
AcDbEntity
  8
_2
  6
EXLTYPE2
 62
     6
100
AcDbLine
 10
291.5
 20
109.0
 30
0.0
 11
291.5
 21
118.877501
 31
0.0
  0
LINE
  5
356
100
AcDbEntity
  8
_2
  6
EXLTYPE2
 62
     6
100
AcDbLine
 10
296.5
 20
109.0
 30
0.0
 11
296.5
 21
118.877501
 31
0.0
  0
LINE
  5
357
100
AcDbEntity
  8
_2
  6
EXLTYPE2
 62
     6
100
AcDbLine
 10
293.6
 20
124.25
 30
0.0
 11
294.4
 21
124.25
 31
0.0
  0
LINE
  5
358
100
AcDbEntity
  8
_2
  6
EXLTYPE2
 62
     6
100
AcDbLine
 10
293.6
 20
119.75
 30
0.0
 11
294.4
 21
119.75
 31
0.0
  0
LINE
  5
359
100
AcDbEntity
  8
_2
  6
EXLTYPE2
 62
     6
100
AcDbLine
 10
291.75
 20
121.6
 30
0.0
 11
291.75
 21
122.4
 31
0.0
  0
LINE
  5
35A
100
AcDbEntity
  8
_2
  6
EXLTYPE2
 62
     6
100
AcDbLine
 10
296.25
 20
121.6
 30
0.0
 11
296.25
 21
122.4
 31
0.0
  0
LINE
  5
35B
100
AcDbEntity
  8
_2
  6
EXLTYPE2
 62
     6
100
AcDbLine
 10
291.75
 20
122.4
 30
0.0
 11
292.84635
 21
122.48635
 31
0.0
  0
LINE
  5
35C
100
AcDbEntity
  8
_2
  6
EXLTYPE2
 62
     6
100
AcDbLine
 10
293.6
 20
124.25
 30
0.0
 11
293.51365
 21
123.15365
 31
0.0
  0
LINE
  5
35D
100
AcDbEntity
  8
_2
  6
EXLTYPE2
 62
     6
100
AcDbLine
 10
292.84635
 20
122.48635
 30
0.0
 11
293.51365
 21
123.15365
 31
0.0
  0
LINE
  5
35E
100
AcDbEntity
  8
_2
  6
EXLTYPE2
 62
     6
100
AcDbLine
 10
293.51365
 20
120.84635
 30
0.0
 11
292.84635
 21
121.51365
 31
0.0
  0
LINE
  5
35F
100
AcDbEntity
  8
_2
  6
EXLTYPE2
 62
     6
100
AcDbLine
 10
295.15365
 20
121.51365
 30
0.0
 11
294.48635
 21
120.84635
 31
0.0
  0
LINE
  5
360
100
AcDbEntity
  8
_2
  6
EXLTYPE2
 62
     6
100
AcDbLine
 10
294.48635
 20
123.15365
 30
0.0
 11
295.15365
 21
122.48635
 31
0.0
  0
LINE
  5
361
100
AcDbEntity
  8
_2
  6
EXLTYPE2
 62
     6
100
AcDbLine
 10
291.75
 20
121.6
 30
0.0
 11
292.84635
 21
121.51365
 31
0.0
  0
LINE
  5
362
100
AcDbEntity
  8
_2
  6
EXLTYPE2
 62
     6
100
AcDbLine
 10
293.6
 20
119.75
 30
0.0
 11
293.51365
 21
120.84635
 31
0.0
  0
LINE
  5
363
100
AcDbEntity
  8
_2
  6
EXLTYPE2
 62
     6
100
AcDbLine
 10
294.4
 20
119.75
 30
0.0
 11
294.48635
 21
120.84635
 31
0.0
  0
LINE
  5
364
100
AcDbEntity
  8
_2
  6
EXLTYPE2
 62
     6
100
AcDbLine
 10
296.25
 20
121.6
 30
0.0
 11
295.15365
 21
121.51365
 31
0.0
  0
LINE
  5
365
100
AcDbEntity
  8
_2
  6
EXLTYPE2
 62
     6
100
AcDbLine
 10
296.25
 20
122.4
 30
0.0
 11
295.15365
 21
122.48635
 31
0.0
  0
LINE
  5
366
100
AcDbEntity
  8
_2
  6
EXLTYPE2
 62
     6
100
AcDbLine
 10
294.4
 20
124.25
 30
0.0
 11
294.48635
 21
123.15365
 31
0.0
  0
LINE
  5
367
100
AcDbEntity
  8
_2
  6
CONTINUOUS
 62
     6
100
AcDbLine
 10
358.5
 20
118.0
 30
0.0
 11
358.5
 21
126.0
 31
0.0
  0
LINE
  5
368
100
AcDbEntity
  8
_2
  6
CONTINUOUS
 62
     6
100
AcDbLine
 10
358.2
 20
118.0
 30
0.0
 11
358.5
 21
118.0
 31
0.0
  0
LINE
  5
369
100
AcDbEntity
  8
_2
  6
CONTINUOUS
 62
     6
100
AcDbLine
 10
358.2
 20
126.0
 30
0.0
 11
358.5
 21
126.0
 31
0.0
  0
LINE
  5
36A
100
AcDbEntity
  8
_2
  6
CONTINUOUS
 62
     6
100
AcDbLine
 10
360.984979
 20
124.0
 30
0.0
 11
361.690287
 21
120.0
 31
0.0
  0
LINE
  5
36B
100
AcDbEntity
  8
_2
  6
CONTINUOUS
 62
     6
100
AcDbLine
 10
362.734979
 20
124.0
 30
0.0
 11
363.440287
 21
120.0
 31
0.0
  0
LINE
  5
36C
100
AcDbEntity
  8
_2
  6
CONTINUOUS
 62
     6
100
AcDbLine
 10
364.484979
 20
124.0
 30
0.0
 11
365.190287
 21
120.0
 31
0.0
  0
LINE
  5
36D
100
AcDbEntity
  8
_2
  6
CONTINUOUS
 62
     6
100
AcDbLine
 10
366.234979
 20
124.0
 30
0.0
 11
366.940287
 21
120.0
 31
0.0
  0
LINE
  5
36E
100
AcDbEntity
  8
_2
  6
CONTINUOUS
 62
     6
100
AcDbLine
 10
367.984979
 20
124.0
 30
0.0
 11
368.690287
 21
120.0
 31
0.0
  0
LINE
  5
36F
100
AcDbEntity
  8
_2
  6
CONTINUOUS
 62
     6
100
AcDbLine
 10
369.734979
 20
124.0
 30
0.0
 11
370.440287
 21
120.0
 31
0.0
  0
LINE
  5
370
100
AcDbEntity
  8
_2
  6
CONTINUOUS
 62
     6
100
AcDbLine
 10
371.484979
 20
124.0
 30
0.0
 11
372.190287
 21
120.0
 31
0.0
  0
LINE
  5
371
100
AcDbEntity
  8
_2
  6
CONTINUOUS
 62
     6
100
AcDbLine
 10
373.234979
 20
124.0
 30
0.0
 11
373.940287
 21
120.0
 31
0.0
  0
LINE
  5
372
100
AcDbEntity
  8
_2
  6
CONTINUOUS
 62
     6
100
AcDbLine
 10
374.984979
 20
124.0
 30
0.0
 11
375.690287
 21
120.0
 31
0.0
  0
LINE
  5
373
100
AcDbEntity
  8
_2
  6
CONTINUOUS
 62
     6
100
AcDbLine
 10
376.734979
 20
124.0
 30
0.0
 11
377.440287
 21
120.0
 31
0.0
  0
LINE
  5
374
100
AcDbEntity
  8
_2
  6
CONTINUOUS
 62
     6
100
AcDbLine
 10
378.484979
 20
124.0
 30
0.0
 11
379.190287
 21
120.0
 31
0.0
  0
LINE
  5
375
100
AcDbEntity
  8
_2
  6
CONTINUOUS
 62
     6
100
AcDbLine
 10
385.460968
 20
121.003074
 30
0.0
 11
388.2
 21
122.0
 31
0.0
  0
ARC
  5
376
100
AcDbEntity
  8
_2
  6
CONTINUOUS
 62
     6
100
AcDbCircle
 10
382.040766
 20
130.4
 30
0.0
 40
10.0
100
AcDbArc
 50
270.0
 51
290.0
  0
LINE
  5
377
100
AcDbEntity
  8
_2
  6
CONTINUOUS
 62
     6
100
AcDbLine
 10
385.460968
 20
122.996926
 30
0.0
 11
388.2
 21
122.0
 31
0.0
  0
ARC
  5
378
100
AcDbEntity
  8
_2
  6
CONTINUOUS
 62
     6
100
AcDbCircle
 10
382.040766
 20
113.6
 30
0.0
 40
10.0
100
AcDbArc
 50
70.0
 51
90.0
  0
LINE
  5
379
100
AcDbEntity
  8
_2
  6
CONTINUOUS
 62
     6
100
AcDbLine
 10
380.234979
 20
124.0
 30
0.0
 11
380.940287
 21
120.0
 31
0.0
  0
LINE
  5
37A
100
AcDbEntity
  8
_2
  6
CONTINUOUS
 62
     6
100
AcDbLine
 10
381.984979
 20
124.0
 30
0.0
 11
382.690287
 21
120.0
 31
0.0
  0
LINE
  5
37B
100
AcDbEntity
  8
_2
  6
CONTINUOUS
 62
     6
100
AcDbLine
 10
383.764636
 20
123.831808
 30
0.0
 11
384.392672
 21
120.270039
 31
0.0
  0
LINE
  5
37C
100
AcDbEntity
  8
_2
  6
CONTINUOUS
 62
     6
100
AcDbLine
 10
385.606165
 20
123.312721
 30
0.0
 11
386.04956
 21
120.7981
 31
0.0
  0
LINE
  5
37D
100
AcDbEntity
  8
_2
  6
CONTINUOUS
 62
     6
100
AcDbLine
 10
387.476178
 20
122.632092
 30
0.0
 11
387.694022
 21
121.396635
 31
0.0
  0
LINE
  5
37E
100
AcDbEntity
  8
_2
  6
CONTINUOUS
 62
     6
100
AcDbLine
 10
358.2
 20
126.0
 30
0.0
 11
358.2
 21
118.0
 31
0.0
  0
LINE
  5
37F
100
AcDbEntity
  8
_2
  6
CONTINUOUS
 62
     6
100
AcDbLine
 10
360.0
 20
124.5
 30
0.0
 11
358.5
 21
126.0
 31
0.0
  0
LINE
  5
380
100
AcDbEntity
  8
_2
  6
CONTINUOUS
 62
     6
100
AcDbLine
 10
360.0
 20
119.5
 30
0.0
 11
358.5
 21
118.0
 31
0.0
  0
LINE
  5
381
100
AcDbEntity
  8
_2
  6
CONTINUOUS
 62
     6
100
AcDbLine
 10
361.0
 20
123.6
 30
0.0
 11
382.040766
 21
123.6
 31
0.0
  0
LINE
  5
382
100
AcDbEntity
  8
_2
  6
CONTINUOUS
 62
     6
100
AcDbLine
 10
361.0
 20
120.4
 30
0.0
 11
382.040766
 21
120.4
 31
0.0
  0
LINE
  5
383
100
AcDbEntity
  8
_2
  6
CONTINUOUS
 62
     7
100
AcDbLine
 10
54.0
 20
105.0
 30
0.0
 11
54.0
 21
511.0
 31
0.0
  0
LINE
  5
384
100
AcDbEntity
  8
_2
  6
CONTINUOUS
 62
     7
100
AcDbLine
 10
322.0
 20
511.0
 30
0.0
 11
322.0
 21
105.0
 31
0.0
  0
LINE
  5
385
100
AcDbEntity
  8
_2
  6
CONTINUOUS
 62
     7
100
AcDbLine
 10
357.0
 20
105.0
 30
0.0
 11
357.0
 21
511.0
 31
0.0
  0
LINE
  5
386
100
AcDbEntity
  8
_2
  6
CONTINUOUS
 62
     7
100
AcDbLine
 10
352.0
 20
105.0
 30
0.0
 11
352.0
 21
511.0
 31
0.0
  0
POLYLINE
  5
387
100
AcDbEntity
  8
_2
  6
CONTINUOUS
 62
     6
100
AcDb2dPolyline
 66
     1
 10
0.0
 20
0.0
 30
0.0
 70
   128
  0
VERTEX
  5
388
100
AcDbEntity
  8
_2
  6
CONTINUOUS
 62
     6
100
AcDbVertex
100
AcDb2dVertex
 10
184.829765
 20
517.0
 30
0.0
  0
VERTEX
  5
389
100
AcDbEntity
  8
_2
  6
CONTINUOUS
 62
     6
100
AcDbVertex
100
AcDb2dVertex
 10
184.746797
 20
516.643303
 30
0.0
  0
VERTEX
  5
38A
100
AcDbEntity
  8
_2
  6
CONTINUOUS
 62
     6
100
AcDbVertex
100
AcDb2dVertex
 10
184.521376
 20
515.631371
 30
0.0
  0
VERTEX
  5
38B
100
AcDbEntity
  8
_2
  6
CONTINUOUS
 62
     6
100
AcDbVertex
100
AcDb2dVertex
 10
184.188727
 20
514.051447
 30
0.0
  0
VERTEX
  5
38C
100
AcDbEntity
  8
_2
  6
CONTINUOUS
 62
     6
100
AcDbVertex
100
AcDb2dVertex
 10
183.784075
 20
511.990769
 30
0.0
  0
VERTEX
  5
38D
100
AcDbEntity
  8
_2
  6
CONTINUOUS
 62
     6
100
AcDbVertex
100
AcDb2dVertex
 10
183.342645
 20
509.536579
 30
0.0
  0
VERTEX
  5
38E
100
AcDbEntity
  8
_2
  6
CONTINUOUS
 62
     6
100
AcDbVertex
100
AcDb2dVertex
 10
182.899662
 20
506.776116
 30
0.0
  0
VERTEX
  5
38F
100
AcDbEntity
  8
_2
  6
CONTINUOUS
 62
     6
100
AcDbVertex
100
AcDb2dVertex
 10
182.490352
 20
503.796623
 30
0.0
  0
VERTEX
  5
390
100
AcDbEntity
  8
_2
  6
CONTINUOUS
 62
     6
100
AcDbVertex
100
AcDb2dVertex
 10
182.149938
 20
500.685339
 30
0.0
  0
VERTEX
  5
391
100
AcDbEntity
  8
_2
  6
CONTINUOUS
 62
     6
100
AcDbVertex
100
AcDb2dVertex
 10
181.913645
 20
497.529504
 30
0.0
  0
VERTEX
  5
392
100
AcDbEntity
  8
_2
  6
CONTINUOUS
 62
     6
100
AcDbVertex
100
AcDb2dVertex
 10
181.8167
 20
494.41636
 30
0.0
  0
VERTEX
  5
393
100
AcDbEntity
  8
_2
  6
CONTINUOUS
 62
     6
100
AcDbVertex
100
AcDb2dVertex
 10
181.894327
 20
491.433147
 30
0.0
  0
VERTEX
  5
394
100
AcDbEntity
  8
_2
  6
CONTINUOUS
 62
     6
100
AcDbVertex
100
AcDb2dVertex
 10
182.123131
 20
488.993261
 30
0.0
  0
VERTEX
  5
395
100
AcDbEntity
  8
_2
  6
CONTINUOUS
 62
     6
100
AcDbVertex
100
AcDb2dVertex
 10
182.481501
 20
486.699475
 30
0.0
  0
VERTEX
  5
396
100
AcDbEntity
  8
_2
  6
CONTINUOUS
 62
     6
100
AcDbVertex
100
AcDb2dVertex
 10
182.939486
 20
484.532765
 30
0.0
  0
VERTEX
  5
397
100
AcDbEntity
  8
_2
  6
CONTINUOUS
 62
     6
100
AcDbVertex
100
AcDb2dVertex
 10
183.467137
 20
482.474109
 30
0.0
  0
VERTEX
  5
398
100
AcDbEntity
  8
_2
  6
CONTINUOUS
 62
     6
100
AcDbVertex
100
AcDb2dVertex
 10
184.034502
 20
480.504482
 30
0.0
  0
VERTEX
  5
399
100
AcDbEntity
  8
_2
  6
CONTINUOUS
 62
     6
100
AcDbVertex
100
AcDb2dVertex
 10
184.611631
 20
478.604862
 30
0.0
  0
VERTEX
  5
39A
100
AcDbEntity
  8
_2
  6
CONTINUOUS
 62
     6
100
AcDbVertex
100
AcDb2dVertex
 10
185.168573
 20
476.756225
 30
0.0
  0
VERTEX
  5
39B
100
AcDbEntity
  8
_2
  6
CONTINUOUS
 62
     6
100
AcDbVertex
100
AcDb2dVertex
 10
185.675379
 20
474.939547
 30
0.0
  0
VERTEX
  5
39C
100
AcDbEntity
  8
_2
  6
CONTINUOUS
 62
     6
100
AcDbVertex
100
AcDb2dVertex
 10
186.102098
 20
473.135805
 30
0.0
  0
VERTEX
  5
39D
100
AcDbEntity
  8
_2
  6
CONTINUOUS
 62
     6
100
AcDbVertex
100
AcDb2dVertex
 10
186.418779
 20
471.325975
 30
0.0
  0
VERTEX
  5
39E
100
AcDbEntity
  8
_2
  6
CONTINUOUS
 62
     6
100
AcDbVertex
100
AcDb2dVertex
 10
186.595471
 20
469.491034
 30
0.0
  0
VERTEX
  5
39F
100
AcDbEntity
  8
_2
  6
CONTINUOUS
 62
     6
100
AcDbVertex
100
AcDb2dVertex
 10
186.603404
 20
467.396595
 30
0.0
  0
VERTEX
  5
3A0
100
AcDbEntity
  8
_2
  6
CONTINUOUS
 62
     6
100
AcDbVertex
100
AcDb2dVertex
 10
186.434549
 20
465.253304
 30
0.0
  0
VERTEX
  5
3A1
100
AcDbEntity
  8
_2
  6
CONTINUOUS
 62
     6
100
AcDbVertex
100
AcDb2dVertex
 10
186.123587
 20
463.067229
 30
0.0
  0
VERTEX
  5
3A2
100
AcDbEntity
  8
_2
  6
CONTINUOUS
 62
     6
100
AcDbVertex
100
AcDb2dVertex
 10
185.705197
 20
460.844439
 30
0.0
  0
VERTEX
  5
3A3
100
AcDbEntity
  8
_2
  6
CONTINUOUS
 62
     6
100
AcDbVertex
100
AcDb2dVertex
 10
185.21406
 20
458.591
 30
0.0
  0
VERTEX
  5
3A4
100
AcDbEntity
  8
_2
  6
CONTINUOUS
 62
     6
100
AcDbVertex
100
AcDb2dVertex
 10
184.684857
 20
456.312981
 30
0.0
  0
VERTEX
  5
3A5
100
AcDbEntity
  8
_2
  6
CONTINUOUS
 62
     6
100
AcDbVertex
100
AcDb2dVertex
 10
184.152268
 20
454.016451
 30
0.0
  0
VERTEX
  5
3A6
100
AcDbEntity
  8
_2
  6
CONTINUOUS
 62
     6
100
AcDbVertex
100
AcDb2dVertex
 10
183.650973
 20
451.707476
 30
0.0
  0
VERTEX
  5
3A7
100
AcDbEntity
  8
_2
  6
CONTINUOUS
 62
     6
100
AcDbVertex
100
AcDb2dVertex
 10
183.215654
 20
449.392127
 30
0.0
  0
VERTEX
  5
3A8
100
AcDbEntity
  8
_2
  6
CONTINUOUS
 62
     6
100
AcDbVertex
100
AcDb2dVertex
 10
182.880989
 20
447.076469
 30
0.0
  0
VERTEX
  5
3A9
100
AcDbEntity
  8
_2
  6
CONTINUOUS
 62
     6
100
AcDbVertex
100
AcDb2dVertex
 10
182.68166
 20
444.766572
 30
0.0
  0
VERTEX
  5
3AA
100
AcDbEntity
  8
_2
  6
CONTINUOUS
 62
     6
100
AcDbVertex
100
AcDb2dVertex
 10
182.661789
 20
441.751083
 30
0.0
  0
VERTEX
  5
3AB
100
AcDbEntity
  8
_2
  6
CONTINUOUS
 62
     6
100
AcDbVertex
100
AcDb2dVertex
 10
182.882726
 20
438.753677
 30
0.0
  0
VERTEX
  5
3AC
100
AcDbEntity
  8
_2
  6
CONTINUOUS
 62
     6
100
AcDbVertex
100
AcDb2dVertex
 10
183.292404
 20
435.772061
 30
0.0
  0
VERTEX
  5
3AD
100
AcDbEntity
  8
_2
  6
CONTINUOUS
 62
     6
100
AcDbVertex
100
AcDb2dVertex
 10
183.838753
 20
432.803942
 30
0.0
  0
VERTEX
  5
3AE
100
AcDbEntity
  8
_2
  6
CONTINUOUS
 62
     6
100
AcDbVertex
100
AcDb2dVertex
 10
184.469705
 20
429.847027
 30
0.0
  0
VERTEX
  5
3AF
100
AcDbEntity
  8
_2
  6
CONTINUOUS
 62
     6
100
AcDbVertex
100
AcDb2dVertex
 10
185.133191
 20
426.899023
 30
0.0
  0
VERTEX
  5
3B0
100
AcDbEntity
  8
_2
  6
CONTINUOUS
 62
     6
100
AcDbVertex
100
AcDb2dVertex
 10
185.777142
 20
423.957636
 30
0.0
  0
VERTEX
  5
3B1
100
AcDbEntity
  8
_2
  6
CONTINUOUS
 62
     6
100
AcDbVertex
100
AcDb2dVertex
 10
186.349489
 20
421.020574
 30
0.0
  0
VERTEX
  5
3B2
100
AcDbEntity
  8
_2
  6
CONTINUOUS
 62
     6
100
AcDbVertex
100
AcDb2dVertex
 10
186.798164
 20
418.085544
 30
0.0
  0
VERTEX
  5
3B3
100
AcDbEntity
  8
_2
  6
CONTINUOUS
 62
     6
100
AcDbVertex
100
AcDb2dVertex
 10
187.071098
 20
415.150252
 30
0.0
  0
VERTEX
  5
3B4
100
AcDbEntity
  8
_2
  6
CONTINUOUS
 62
     6
100
AcDbVertex
100
AcDb2dVertex
 10
187.116223
 20
412.212404
 30
0.0
  0
VERTEX
  5
3B5
100
AcDbEntity
  8
_2
  6
CONTINUOUS
 62
     6
100
AcDbVertex
100
AcDb2dVertex
 10
186.927466
 20
409.516527
 30
0.0
  0
VERTEX
  5
3B6
100
AcDbEntity
  8
_2
  6
CONTINUOUS
 62
     6
100
AcDbVertex
100
AcDb2dVertex
 10
186.54978
 20
406.81734
 30
0.0
  0
VERTEX
  5
3B7
100
AcDbEntity
  8
_2
  6
CONTINUOUS
 62
     6
100
AcDbVertex
100
AcDb2dVertex
 10
186.029251
 20
404.115605
 30
0.0
  0
VERTEX
  5
3B8
100
AcDbEntity
  8
_2
  6
CONTINUOUS
 62
     6
100
AcDbVertex
100
AcDb2dVertex
 10
185.411965
 20
401.412081
 30
0.0
  0
VERTEX
  5
3B9
100
AcDbEntity
  8
_2
  6
CONTINUOUS
 62
     6
100
AcDbVertex
100
AcDb2dVertex
 10
184.744005
 20
398.707531
 30
0.0
  0
VERTEX
  5
3BA
100
AcDbEntity
  8
_2
  6
CONTINUOUS
 62
     6
100
AcDbVertex
100
AcDb2dVertex
 10
184.071457
 20
396.002715
 30
0.0
  0
VERTEX
  5
3BB
100
AcDbEntity
  8
_2
  6
CONTINUOUS
 62
     6
100
AcDbVertex
100
AcDb2dVertex
 10
183.440406
 20
393.298394
 30
0.0
  0
VERTEX
  5
3BC
100
AcDbEntity
  8
_2
  6
CONTINUOUS
 62
     6
100
AcDbVertex
100
AcDb2dVertex
 10
182.896937
 20
390.595329
 30
0.0
  0
VERTEX
  5
3BD
100
AcDbEntity
  8
_2
  6
CONTINUOUS
 62
     6
100
AcDbVertex
100
AcDb2dVertex
 10
182.487136
 20
387.894282
 30
0.0
  0
VERTEX
  5
3BE
100
AcDbEntity
  8
_2
  6
CONTINUOUS
 62
     6
100
AcDbVertex
100
AcDb2dVertex
 10
182.257087
 20
385.196013
 30
0.0
  0
VERTEX
  5
3BF
100
AcDbEntity
  8
_2
  6
CONTINUOUS
 62
     6
100
AcDbVertex
100
AcDb2dVertex
 10
182.252875
 20
382.501283
 30
0.0
  0
VERTEX
  5
3C0
100
AcDbEntity
  8
_2
  6
CONTINUOUS
 62
     6
100
AcDbVertex
100
AcDb2dVertex
 10
182.46909
 20
380.069806
 30
0.0
  0
VERTEX
  5
3C1
100
AcDbEntity
  8
_2
  6
CONTINUOUS
 62
     6
100
AcDbVertex
100
AcDb2dVertex
 10
182.865881
 20
377.641405
 30
0.0
  0
VERTEX
  5
3C2
100
AcDbEntity
  8
_2
  6
CONTINUOUS
 62
     6
100
AcDbVertex
100
AcDb2dVertex
 10
183.401796
 20
375.215645
 30
0.0
  0
VERTEX
  5
3C3
100
AcDbEntity
  8
_2
  6
CONTINUOUS
 62
     6
100
AcDbVertex
100
AcDb2dVertex
 10
184.035382
 20
372.792089
 30
0.0
  0
VERTEX
  5
3C4
100
AcDbEntity
  8
_2
  6
CONTINUOUS
 62
     6
100
AcDbVertex
100
AcDb2dVertex
 10
184.725188
 20
370.370304
 30
0.0
  0
VERTEX
  5
3C5
100
AcDbEntity
  8
_2
  6
CONTINUOUS
 62
     6
100
AcDbVertex
100
AcDb2dVertex
 10
185.42976
 20
367.949852
 30
0.0
  0
VERTEX
  5
3C6
100
AcDbEntity
  8
_2
  6
CONTINUOUS
 62
     6
100
AcDbVertex
100
AcDb2dVertex
 10
186.107647
 20
365.5303
 30
0.0
  0
VERTEX
  5
3C7
100
AcDbEntity
  8
_2
  6
CONTINUOUS
 62
     6
100
AcDbVertex
100
AcDb2dVertex
 10
186.717396
 20
363.111211
 30
0.0
  0
VERTEX
  5
3C8
100
AcDbEntity
  8
_2
  6
CONTINUOUS
 62
     6
100
AcDbVertex
100
AcDb2dVertex
 10
187.217555
 20
360.69215
 30
0.0
  0
VERTEX
  5
3C9
100
AcDbEntity
  8
_2
  6
CONTINUOUS
 62
     6
100
AcDbVertex
100
AcDb2dVertex
 10
187.566672
 20
358.272682
 30
0.0
  0
VERTEX
  5
3CA
100
AcDbEntity
  8
_2
  6
CONTINUOUS
 62
     6
100
AcDbVertex
100
AcDb2dVertex
 10
187.723295
 20
355.852371
 30
0.0
  0
VERTEX
  5
3CB
100
AcDbEntity
  8
_2
  6
CONTINUOUS
 62
     6
100
AcDbVertex
100
AcDb2dVertex
 10
187.650008
 20
353.301937
 30
0.0
  0
VERTEX
  5
3CC
100
AcDbEntity
  8
_2
  6
CONTINUOUS
 62
     6
100
AcDbVertex
100
AcDb2dVertex
 10
187.3618
 20
350.749947
 30
0.0
  0
VERTEX
  5
3CD
100
AcDbEntity
  8
_2
  6
CONTINUOUS
 62
     6
100
AcDbVertex
100
AcDb2dVertex
 10
186.90326
 20
348.196259
 30
0.0
  0
VERTEX
  5
3CE
100
AcDbEntity
  8
_2
  6
CONTINUOUS
 62
     6
100
AcDbVertex
100
AcDb2dVertex
 10
186.318974
 20
345.640734
 30
0.0
  0
VERTEX
  5
3CF
100
AcDbEntity
  8
_2
  6
CONTINUOUS
 62
     6
100
AcDbVertex
100
AcDb2dVertex
 10
185.65353
 20
343.083233
 30
0.0
  0
VERTEX
  5
3D0
100
AcDbEntity
  8
_2
  6
CONTINUOUS
 62
     6
100
AcDbVertex
100
AcDb2dVertex
 10
184.951516
 20
340.523617
 30
0.0
  0
VERTEX
  5
3D1
100
AcDbEntity
  8
_2
  6
CONTINUOUS
 62
     6
100
AcDbVertex
100
AcDb2dVertex
 10
184.257518
 20
337.961745
 30
0.0
  0
VERTEX
  5
3D2
100
AcDbEntity
  8
_2
  6
CONTINUOUS
 62
     6
100
AcDbVertex
100
AcDb2dVertex
 10
183.616124
 20
335.397478
 30
0.0
  0
VERTEX
  5
3D3
100
AcDbEntity
  8
_2
  6
CONTINUOUS
 62
     6
100
AcDbVertex
100
AcDb2dVertex
 10
183.071922
 20
332.830676
 30
0.0
  0
VERTEX
  5
3D4
100
AcDbEntity
  8
_2
  6
CONTINUOUS
 62
     6
100
AcDbVertex
100
AcDb2dVertex
 10
182.669498
 20
330.2612
 30
0.0
  0
VERTEX
  5
3D5
100
AcDbEntity
  8
_2
  6
CONTINUOUS
 62
     6
100
AcDbVertex
100
AcDb2dVertex
 10
182.453441
 20
327.68891
 30
0.0
  0
VERTEX
  5
3D6
100
AcDbEntity
  8
_2
  6
CONTINUOUS
 62
     6
100
AcDbVertex
100
AcDb2dVertex
 10
182.454226
 20
325.114966
 30
0.0
  0
VERTEX
  5
3D7
100
AcDbEntity
  8
_2
  6
CONTINUOUS
 62
     6
100
AcDbVertex
100
AcDb2dVertex
 10
182.64601
 20
322.538576
 30
0.0
  0
VERTEX
  5
3D8
100
AcDbEntity
  8
_2
  6
CONTINUOUS
 62
     6
100
AcDbVertex
100
AcDb2dVertex
 10
182.989049
 20
319.960247
 30
0.0
  0
VERTEX
  5
3D9
100
AcDbEntity
  8
_2
  6
CONTINUOUS
 62
     6
100
AcDbVertex
100
AcDb2dVertex
 10
183.443601
 20
317.380484
 30
0.0
  0
VERTEX
  5
3DA
100
AcDbEntity
  8
_2
  6
CONTINUOUS
 62
     6
100
AcDbVertex
100
AcDb2dVertex
 10
183.969926
 20
314.799792
 30
0.0
  0
VERTEX
  5
3DB
100
AcDbEntity
  8
_2
  6
CONTINUOUS
 62
     6
100
AcDbVertex
100
AcDb2dVertex
 10
184.52828
 20
312.218677
 30
0.0
  0
VERTEX
  5
3DC
100
AcDbEntity
  8
_2
  6
CONTINUOUS
 62
     6
100
AcDbVertex
100
AcDb2dVertex
 10
185.078921
 20
309.637645
 30
0.0
  0
VERTEX
  5
3DD
100
AcDbEntity
  8
_2
  6
CONTINUOUS
 62
     6
100
AcDbVertex
100
AcDb2dVertex
 10
185.582108
 20
307.057202
 30
0.0
  0
VERTEX
  5
3DE
100
AcDbEntity
  8
_2
  6
CONTINUOUS
 62
     6
100
AcDbVertex
100
AcDb2dVertex
 10
185.998098
 20
304.477852
 30
0.0
  0
VERTEX
  5
3DF
100
AcDbEntity
  8
_2
  6
CONTINUOUS
 62
     6
100
AcDbVertex
100
AcDb2dVertex
 10
186.287148
 20
301.900102
 30
0.0
  0
VERTEX
  5
3E0
100
AcDbEntity
  8
_2
  6
CONTINUOUS
 62
     6
100
AcDbVertex
100
AcDb2dVertex
 10
186.409518
 20
299.324456
 30
0.0
  0
VERTEX
  5
3E1
100
AcDbEntity
  8
_2
  6
CONTINUOUS
 62
     6
100
AcDbVertex
100
AcDb2dVertex
 10
186.2795
 20
295.981827
 30
0.0
  0
VERTEX
  5
3E2
100
AcDbEntity
  8
_2
  6
CONTINUOUS
 62
     6
100
AcDbVertex
100
AcDb2dVertex
 10
185.865267
 20
292.643078
 30
0.0
  0
VERTEX
  5
3E3
100
AcDbEntity
  8
_2
  6
CONTINUOUS
 62
     6
100
AcDbVertex
100
AcDb2dVertex
 10
185.231044
 20
289.307682
 30
0.0
  0
VERTEX
  5
3E4
100
AcDbEntity
  8
_2
  6
CONTINUOUS
 62
     6
100
AcDbVertex
100
AcDb2dVertex
 10
184.441055
 20
285.975114
 30
0.0
  0
VERTEX
  5
3E5
100
AcDbEntity
  8
_2
  6
CONTINUOUS
 62
     6
100
AcDbVertex
100
AcDb2dVertex
 10
183.559521
 20
282.644845
 30
0.0
  0
VERTEX
  5
3E6
100
AcDbEntity
  8
_2
  6
CONTINUOUS
 62
     6
100
AcDbVertex
100
AcDb2dVertex
 10
182.650667
 20
279.316349
 30
0.0
  0
VERTEX
  5
3E7
100
AcDbEntity
  8
_2
  6
CONTINUOUS
 62
     6
100
AcDbVertex
100
AcDb2dVertex
 10
181.778716
 20
275.989101
 30
0.0
  0
VERTEX
  5
3E8
100
AcDbEntity
  8
_2
  6
CONTINUOUS
 62
     6
100
AcDbVertex
100
AcDb2dVertex
 10
181.007892
 20
272.662572
 30
0.0
  0
VERTEX
  5
3E9
100
AcDbEntity
  8
_2
  6
CONTINUOUS
 62
     6
100
AcDbVertex
100
AcDb2dVertex
 10
180.402417
 20
269.336237
 30
0.0
  0
VERTEX
  5
3EA
100
AcDbEntity
  8
_2
  6
CONTINUOUS
 62
     6
100
AcDbVertex
100
AcDb2dVertex
 10
180.026515
 20
266.009569
 30
0.0
  0
VERTEX
  5
3EB
100
AcDbEntity
  8
_2
  6
CONTINUOUS
 62
     6
100
AcDbVertex
100
AcDb2dVertex
 10
179.944409
 20
262.68204
 30
0.0
  0
VERTEX
  5
3EC
100
AcDbEntity
  8
_2
  6
CONTINUOUS
 62
     6
100
AcDbVertex
100
AcDb2dVertex
 10
180.110079
 20
260.120737
 30
0.0
  0
VERTEX
  5
3ED
100
AcDbEntity
  8
_2
  6
CONTINUOUS
 62
     6
100
AcDbVertex
100
AcDb2dVertex
 10
180.447847
 20
257.558517
 30
0.0
  0
VERTEX
  5
3EE
100
AcDbEntity
  8
_2
  6
CONTINUOUS
 62
     6
100
AcDbVertex
100
AcDb2dVertex
 10
180.917838
 20
254.995282
 30
0.0
  0
VERTEX
  5
3EF
100
AcDbEntity
  8
_2
  6
CONTINUOUS
 62
     6
100
AcDbVertex
100
AcDb2dVertex
 10
181.480176
 20
252.430938
 30
0.0
  0
VERTEX
  5
3F0
100
AcDbEntity
  8
_2
  6
CONTINUOUS
 62
     6
100
AcDbVertex
100
AcDb2dVertex
 10
182.094986
 20
249.865387
 30
0.0
  0
VERTEX
  5
3F1
100
AcDbEntity
  8
_2
  6
CONTINUOUS
 62
     6
100
AcDbVertex
100
AcDb2dVertex
 10
182.722393
 20
247.298534
 30
0.0
  0
VERTEX
  5
3F2
100
AcDbEntity
  8
_2
  6
CONTINUOUS
 62
     6
100
AcDbVertex
100
AcDb2dVertex
 10
183.322521
 20
244.730281
 30
0.0
  0
VERTEX
  5
3F3
100
AcDbEntity
  8
_2
  6
CONTINUOUS
 62
     6
100
AcDbVertex
100
AcDb2dVertex
 10
183.855494
 20
242.160533
 30
0.0
  0
VERTEX
  5
3F4
100
AcDbEntity
  8
_2
  6
CONTINUOUS
 62
     6
100
AcDbVertex
100
AcDb2dVertex
 10
184.281437
 20
239.589193
 30
0.0
  0
VERTEX
  5
3F5
100
AcDbEntity
  8
_2
  6
CONTINUOUS
 62
     6
100
AcDbVertex
100
AcDb2dVertex
 10
184.560474
 20
237.016164
 30
0.0
  0
VERTEX
  5
3F6
100
AcDbEntity
  8
_2
  6
CONTINUOUS
 62
     6
100
AcDbVertex
100
AcDb2dVertex
 10
184.65273
 20
234.441351
 30
0.0
  0
VERTEX
  5
3F7
100
AcDbEntity
  8
_2
  6
CONTINUOUS
 62
     6
100
AcDbVertex
100
AcDb2dVertex
 10
184.542639
 20
231.98864
 30
0.0
  0
VERTEX
  5
3F8
100
AcDbEntity
  8
_2
  6
CONTINUOUS
 62
     6
100
AcDbVertex
100
AcDb2dVertex
 10
184.265197
 20
229.534838
 30
0.0
  0
VERTEX
  5
3F9
100
AcDbEntity
  8
_2
  6
CONTINUOUS
 62
     6
100
AcDbVertex
100
AcDb2dVertex
 10
183.858449
 20
227.080557
 30
0.0
  0
VERTEX
  5
3FA
100
AcDbEntity
  8
_2
  6
CONTINUOUS
 62
     6
100
AcDbVertex
100
AcDb2dVertex
 10
183.360438
 20
224.62641
 30
0.0
  0
VERTEX
  5
3FB
100
AcDbEntity
  8
_2
  6
CONTINUOUS
 62
     6
100
AcDbVertex
100
AcDb2dVertex
 10
182.80921
 20
222.173012
 30
0.0
  0
VERTEX
  5
3FC
100
AcDbEntity
  8
_2
  6
CONTINUOUS
 62
     6
100
AcDbVertex
100
AcDb2dVertex
 10
182.242809
 20
219.720974
 30
0.0
  0
VERTEX
  5
3FD
100
AcDbEntity
  8
_2
  6
CONTINUOUS
 62
     6
100
AcDbVertex
100
AcDb2dVertex
 10
181.699281
 20
217.270909
 30
0.0
  0
VERTEX
  5
3FE
100
AcDbEntity
  8
_2
  6
CONTINUOUS
 62
     6
100
AcDbVertex
100
AcDb2dVertex
 10
181.216669
 20
214.823432
 30
0.0
  0
VERTEX
  5
3FF
100
AcDbEntity
  8
_2
  6
CONTINUOUS
 62
     6
100
AcDbVertex
100
AcDb2dVertex
 10
180.833019
 20
212.379155
 30
0.0
  0
VERTEX
  5
400
100
AcDbEntity
  8
_2
  6
CONTINUOUS
 62
     6
100
AcDbVertex
100
AcDb2dVertex
 10
180.586376
 20
209.93869
 30
0.0
  0
VERTEX
  5
401
100
AcDbEntity
  8
_2
  6
CONTINUOUS
 62
     6
100
AcDbVertex
100
AcDb2dVertex
 10
180.514783
 20
207.502652
 30
0.0
  0
VERTEX
  5
402
100
AcDbEntity
  8
_2
  6
CONTINUOUS
 62
     6
100
AcDbVertex
100
AcDb2dVertex
 10
180.632426
 20
205.191158
 30
0.0
  0
VERTEX
  5
403
100
AcDbEntity
  8
_2
  6
CONTINUOUS
 62
     6
100
AcDbVertex
100
AcDb2dVertex
 10
180.907568
 20
202.882421
 30
0.0
  0
VERTEX
  5
404
100
AcDbEntity
  8
_2
  6
CONTINUOUS
 62
     6
100
AcDbVertex
100
AcDb2dVertex
 10
181.305133
 20
200.574643
 30
0.0
  0
VERTEX
  5
405
100
AcDbEntity
  8
_2
  6
CONTINUOUS
 62
     6
100
AcDbVertex
100
AcDb2dVertex
 10
181.790046
 20
198.266026
 30
0.0
  0
VERTEX
  5
406
100
AcDbEntity
  8
_2
  6
CONTINUOUS
 62
     6
100
AcDbVertex
100
AcDb2dVertex
 10
182.327231
 20
195.954772
 30
0.0
  0
VERTEX
  5
407
100
AcDbEntity
  8
_2
  6
CONTINUOUS
 62
     6
100
AcDbVertex
100
AcDb2dVertex
 10
182.881614
 20
193.639084
 30
0.0
  0
VERTEX
  5
408
100
AcDbEntity
  8
_2
  6
CONTINUOUS
 62
     6
100
AcDbVertex
100
AcDb2dVertex
 10
183.41812
 20
191.317164
 30
0.0
  0
VERTEX
  5
409
100
AcDbEntity
  8
_2
  6
CONTINUOUS
 62
     6
100
AcDbVertex
100
AcDb2dVertex
 10
183.901672
 20
188.987216
 30
0.0
  0
VERTEX
  5
40A
100
AcDbEntity
  8
_2
  6
CONTINUOUS
 62
     6
100
AcDbVertex
100
AcDb2dVertex
 10
184.297196
 20
186.64744
 30
0.0
  0
VERTEX
  5
40B
100
AcDbEntity
  8
_2
  6
CONTINUOUS
 62
     6
100
AcDbVertex
100
AcDb2dVertex
 10
184.569617
 20
184.29604
 30
0.0
  0
VERTEX
  5
40C
100
AcDbEntity
  8
_2
  6
CONTINUOUS
 62
     6
100
AcDbVertex
100
AcDb2dVertex
 10
184.683859
 20
181.931218
 30
0.0
  0
VERTEX
  5
40D
100
AcDbEntity
  8
_2
  6
CONTINUOUS
 62
     6
100
AcDbVertex
100
AcDb2dVertex
 10
184.598141
 20
179.290136
 30
0.0
  0
VERTEX
  5
40E
100
AcDbEntity
  8
_2
  6
CONTINUOUS
 62
     6
100
AcDbVertex
100
AcDb2dVertex
 10
184.318052
 20
176.637879
 30
0.0
  0
VERTEX
  5
40F
100
AcDbEntity
  8
_2
  6
CONTINUOUS
 62
     6
100
AcDbVertex
100
AcDb2dVertex
 10
183.887312
 20
173.982025
 30
0.0
  0
VERTEX
  5
410
100
AcDbEntity
  8
_2
  6
CONTINUOUS
 62
     6
100
AcDbVertex
100
AcDb2dVertex
 10
183.349641
 20
171.330149
 30
0.0
  0
VERTEX
  5
411
100
AcDbEntity
  8
_2
  6
CONTINUOUS
 62
     6
100
AcDbVertex
100
AcDb2dVertex
 10
182.748758
 20
168.689828
 30
0.0
  0
VERTEX
  5
412
100
AcDbEntity
  8
_2
  6
CONTINUOUS
 62
     6
100
AcDbVertex
100
AcDb2dVertex
 10
182.128384
 20
166.068639
 30
0.0
  0
VERTEX
  5
413
100
AcDbEntity
  8
_2
  6
CONTINUOUS
 62
     6
100
AcDbVertex
100
AcDb2dVertex
 10
181.532238
 20
163.474158
 30
0.0
  0
VERTEX
  5
414
100
AcDbEntity
  8
_2
  6
CONTINUOUS
 62
     6
100
AcDbVertex
100
AcDb2dVertex
 10
181.004041
 20
160.913961
 30
0.0
  0
VERTEX
  5
415
100
AcDbEntity
  8
_2
  6
CONTINUOUS
 62
     6
100
AcDbVertex
100
AcDb2dVertex
 10
180.587511
 20
158.395625
 30
0.0
  0
VERTEX
  5
416
100
AcDbEntity
  8
_2
  6
CONTINUOUS
 62
     6
100
AcDbVertex
100
AcDb2dVertex
 10
180.32637
 20
155.926726
 30
0.0
  0
VERTEX
  5
417
100
AcDbEntity
  8
_2
  6
CONTINUOUS
 62
     6
100
AcDbVertex
100
AcDb2dVertex
 10
180.264336
 20
153.51484
 30
0.0
  0
VERTEX
  5
418
100
AcDbEntity
  8
_2
  6
CONTINUOUS
 62
     6
100
AcDbVertex
100
AcDb2dVertex
 10
180.45823
 20
150.934335
 30
0.0
  0
VERTEX
  5
419
100
AcDbEntity
  8
_2
  6
CONTINUOUS
 62
     6
100
AcDbVertex
100
AcDb2dVertex
 10
180.886817
 20
148.399894
 30
0.0
  0
VERTEX
  5
41A
100
AcDbEntity
  8
_2
  6
CONTINUOUS
 62
     6
100
AcDbVertex
100
AcDb2dVertex
 10
181.492044
 20
145.879711
 30
0.0
  0
VERTEX
  5
41B
100
AcDbEntity
  8
_2
  6
CONTINUOUS
 62
     6
100
AcDbVertex
100
AcDb2dVertex
 10
182.215857
 20
143.341983
 30
0.0
  0
VERTEX
  5
41C
100
AcDbEntity
  8
_2
  6
CONTINUOUS
 62
     6
100
AcDbVertex
100
AcDb2dVertex
 10
183.000203
 20
140.754905
 30
0.0
  0
VERTEX
  5
41D
100
AcDbEntity
  8
_2
  6
CONTINUOUS
 62
     6
100
AcDbVertex
100
AcDb2dVertex
 10
183.787031
 20
138.086673
 30
0.0
  0
VERTEX
  5
41E
100
AcDbEntity
  8
_2
  6
CONTINUOUS
 62
     6
100
AcDbVertex
100
AcDb2dVertex
 10
184.518286
 20
135.305483
 30
0.0
  0
VERTEX
  5
41F
100
AcDbEntity
  8
_2
  6
CONTINUOUS
 62
     6
100
AcDbVertex
100
AcDb2dVertex
 10
185.135916
 20
132.37953
 30
0.0
  0
VERTEX
  5
420
100
AcDbEntity
  8
_2
  6
CONTINUOUS
 62
     6
100
AcDbVertex
100
AcDb2dVertex
 10
185.581869
 20
129.277009
 30
0.0
  0
VERTEX
  5
421
100
AcDbEntity
  8
_2
  6
CONTINUOUS
 62
     6
100
AcDbVertex
100
AcDb2dVertex
 10
185.79809
 20
125.966117
 30
0.0
  0
VERTEX
  5
422
100
AcDbEntity
  8
_2
  6
CONTINUOUS
 62
     6
100
AcDbVertex
100
AcDb2dVertex
 10
185.726528
 20
122.41505
 30
0.0
  0
VERTEX
  5
423
100
AcDbEntity
  8
_2
  6
CONTINUOUS
 62
     6
100
AcDbVertex
100
AcDb2dVertex
 10
185.480472
 20
119.761086
 30
0.0
  0
VERTEX
  5
424
100
AcDbEntity
  8
_2
  6
CONTINUOUS
 62
     6
100
AcDbVertex
100
AcDb2dVertex
 10
185.096313
 20
117.039293
 30
0.0
  0
VERTEX
  5
425
100
AcDbEntity
  8
_2
  6
CONTINUOUS
 62
     6
100
AcDbVertex
100
AcDb2dVertex
 10
184.608085
 20
114.317218
 30
0.0
  0
VERTEX
  5
426
100
AcDbEntity
  8
_2
  6
CONTINUOUS
 62
     6
100
AcDbVertex
100
AcDb2dVertex
 10
184.049827
 20
111.662411
 30
0.0
  0
VERTEX
  5
427
100
AcDbEntity
  8
_2
  6
CONTINUOUS
 62
     6
100
AcDbVertex
100
AcDb2dVertex
 10
183.455574
 20
109.142421
 30
0.0
  0
VERTEX
  5
428
100
AcDbEntity
  8
_2
  6
CONTINUOUS
 62
     6
100
AcDbVertex
100
AcDb2dVertex
 10
182.859362
 20
106.824796
 30
0.0
  0
VERTEX
  5
429
100
AcDbEntity
  8
_2
  6
CONTINUOUS
 62
     6
100
AcDbVertex
100
AcDb2dVertex
 10
182.295229
 20
104.777084
 30
0.0
  0
VERTEX
  5
42A
100
AcDbEntity
  8
_2
  6
CONTINUOUS
 62
     6
100
AcDbVertex
100
AcDb2dVertex
 10
181.79721
 20
103.066834
 30
0.0
  0
VERTEX
  5
42B
100
AcDbEntity
  8
_2
  6
CONTINUOUS
 62
     6
100
AcDbVertex
100
AcDb2dVertex
 10
181.399342
 20
101.761596
 30
0.0
  0
VERTEX
  5
42C
100
AcDbEntity
  8
_2
  6
CONTINUOUS
 62
     6
100
AcDbVertex
100
AcDb2dVertex
 10
181.135661
 20
100.928917
 30
0.0
  0
VERTEX
  5
42D
100
AcDbEntity
  8
_2
  6
CONTINUOUS
 62
     6
100
AcDbVertex
100
AcDb2dVertex
 10
181.040203
 20
100.636347
 30
0.0
  0
SEQEND
  5
42E
100
AcDbEntity
  8
_2
  6
CONTINUOUS
 62
     6
  0
POLYLINE
  5
42F
100
AcDbEntity
  8
_2
  6
CONTINUOUS
 62
     6
100
AcDb2dPolyline
 66
     1
 10
0.0
 20
0.0
 30
0.0
 70
   128
  0
VERTEX
  5
430
100
AcDbEntity
  8
_2
  6
CONTINUOUS
 62
     6
100
AcDbVertex
100
AcDb2dVertex
 10
188.629765
 20
517.0
 30
0.0
  0
VERTEX
  5
431
100
AcDbEntity
  8
_2
  6
CONTINUOUS
 62
     6
100
AcDbVertex
100
AcDb2dVertex
 10
188.546797
 20
516.643303
 30
0.0
  0
VERTEX
  5
432
100
AcDbEntity
  8
_2
  6
CONTINUOUS
 62
     6
100
AcDbVertex
100
AcDb2dVertex
 10
188.321376
 20
515.631371
 30
0.0
  0
VERTEX
  5
433
100
AcDbEntity
  8
_2
  6
CONTINUOUS
 62
     6
100
AcDbVertex
100
AcDb2dVertex
 10
187.988727
 20
514.051447
 30
0.0
  0
VERTEX
  5
434
100
AcDbEntity
  8
_2
  6
CONTINUOUS
 62
     6
100
AcDbVertex
100
AcDb2dVertex
 10
187.584075
 20
511.990769
 30
0.0
  0
VERTEX
  5
435
100
AcDbEntity
  8
_2
  6
CONTINUOUS
 62
     6
100
AcDbVertex
100
AcDb2dVertex
 10
187.142645
 20
509.536579
 30
0.0
  0
VERTEX
  5
436
100
AcDbEntity
  8
_2
  6
CONTINUOUS
 62
     6
100
AcDbVertex
100
AcDb2dVertex
 10
186.699662
 20
506.776116
 30
0.0
  0
VERTEX
  5
437
100
AcDbEntity
  8
_2
  6
CONTINUOUS
 62
     6
100
AcDbVertex
100
AcDb2dVertex
 10
186.290352
 20
503.796623
 30
0.0
  0
VERTEX
  5
438
100
AcDbEntity
  8
_2
  6
CONTINUOUS
 62
     6
100
AcDbVertex
100
AcDb2dVertex
 10
185.949938
 20
500.685339
 30
0.0
  0
VERTEX
  5
439
100
AcDbEntity
  8
_2
  6
CONTINUOUS
 62
     6
100
AcDbVertex
100
AcDb2dVertex
 10
185.713645
 20
497.529504
 30
0.0
  0
VERTEX
  5
43A
100
AcDbEntity
  8
_2
  6
CONTINUOUS
 62
     6
100
AcDbVertex
100
AcDb2dVertex
 10
185.6167
 20
494.41636
 30
0.0
  0
VERTEX
  5
43B
100
AcDbEntity
  8
_2
  6
CONTINUOUS
 62
     6
100
AcDbVertex
100
AcDb2dVertex
 10
185.694327
 20
491.433147
 30
0.0
  0
VERTEX
  5
43C
100
AcDbEntity
  8
_2
  6
CONTINUOUS
 62
     6
100
AcDbVertex
100
AcDb2dVertex
 10
185.923131
 20
488.993261
 30
0.0
  0
VERTEX
  5
43D
100
AcDbEntity
  8
_2
  6
CONTINUOUS
 62
     6
100
AcDbVertex
100
AcDb2dVertex
 10
186.281501
 20
486.699475
 30
0.0
  0
VERTEX
  5
43E
100
AcDbEntity
  8
_2
  6
CONTINUOUS
 62
     6
100
AcDbVertex
100
AcDb2dVertex
 10
186.739486
 20
484.532765
 30
0.0
  0
VERTEX
  5
43F
100
AcDbEntity
  8
_2
  6
CONTINUOUS
 62
     6
100
AcDbVertex
100
AcDb2dVertex
 10
187.267137
 20
482.474109
 30
0.0
  0
VERTEX
  5
440
100
AcDbEntity
  8
_2
  6
CONTINUOUS
 62
     6
100
AcDbVertex
100
AcDb2dVertex
 10
187.834502
 20
480.504482
 30
0.0
  0
VERTEX
  5
441
100
AcDbEntity
  8
_2
  6
CONTINUOUS
 62
     6
100
AcDbVertex
100
AcDb2dVertex
 10
188.411631
 20
478.604862
 30
0.0
  0
VERTEX
  5
442
100
AcDbEntity
  8
_2
  6
CONTINUOUS
 62
     6
100
AcDbVertex
100
AcDb2dVertex
 10
188.968573
 20
476.756225
 30
0.0
  0
VERTEX
  5
443
100
AcDbEntity
  8
_2
  6
CONTINUOUS
 62
     6
100
AcDbVertex
100
AcDb2dVertex
 10
189.475379
 20
474.939547
 30
0.0
  0
VERTEX
  5
444
100
AcDbEntity
  8
_2
  6
CONTINUOUS
 62
     6
100
AcDbVertex
100
AcDb2dVertex
 10
189.902098
 20
473.135805
 30
0.0
  0
VERTEX
  5
445
100
AcDbEntity
  8
_2
  6
CONTINUOUS
 62
     6
100
AcDbVertex
100
AcDb2dVertex
 10
190.218779
 20
471.325975
 30
0.0
  0
VERTEX
  5
446
100
AcDbEntity
  8
_2
  6
CONTINUOUS
 62
     6
100
AcDbVertex
100
AcDb2dVertex
 10
190.395471
 20
469.491034
 30
0.0
  0
VERTEX
  5
447
100
AcDbEntity
  8
_2
  6
CONTINUOUS
 62
     6
100
AcDbVertex
100
AcDb2dVertex
 10
190.403404
 20
467.396595
 30
0.0
  0
VERTEX
  5
448
100
AcDbEntity
  8
_2
  6
CONTINUOUS
 62
     6
100
AcDbVertex
100
AcDb2dVertex
 10
190.234549
 20
465.253304
 30
0.0
  0
VERTEX
  5
449
100
AcDbEntity
  8
_2
  6
CONTINUOUS
 62
     6
100
AcDbVertex
100
AcDb2dVertex
 10
189.923587
 20
463.067229
 30
0.0
  0
VERTEX
  5
44A
100
AcDbEntity
  8
_2
  6
CONTINUOUS
 62
     6
100
AcDbVertex
100
AcDb2dVertex
 10
189.505197
 20
460.844439
 30
0.0
  0
VERTEX
  5
44B
100
AcDbEntity
  8
_2
  6
CONTINUOUS
 62
     6
100
AcDbVertex
100
AcDb2dVertex
 10
189.01406
 20
458.591
 30
0.0
  0
VERTEX
  5
44C
100
AcDbEntity
  8
_2
  6
CONTINUOUS
 62
     6
100
AcDbVertex
100
AcDb2dVertex
 10
188.484857
 20
456.312981
 30
0.0
  0
VERTEX
  5
44D
100
AcDbEntity
  8
_2
  6
CONTINUOUS
 62
     6
100
AcDbVertex
100
AcDb2dVertex
 10
187.952268
 20
454.016451
 30
0.0
  0
VERTEX
  5
44E
100
AcDbEntity
  8
_2
  6
CONTINUOUS
 62
     6
100
AcDbVertex
100
AcDb2dVertex
 10
187.450973
 20
451.707476
 30
0.0
  0
VERTEX
  5
44F
100
AcDbEntity
  8
_2
  6
CONTINUOUS
 62
     6
100
AcDbVertex
100
AcDb2dVertex
 10
187.015654
 20
449.392127
 30
0.0
  0
VERTEX
  5
450
100
AcDbEntity
  8
_2
  6
CONTINUOUS
 62
     6
100
AcDbVertex
100
AcDb2dVertex
 10
186.680989
 20
447.076469
 30
0.0
  0
VERTEX
  5
451
100
AcDbEntity
  8
_2
  6
CONTINUOUS
 62
     6
100
AcDbVertex
100
AcDb2dVertex
 10
186.48166
 20
444.766572
 30
0.0
  0
VERTEX
  5
452
100
AcDbEntity
  8
_2
  6
CONTINUOUS
 62
     6
100
AcDbVertex
100
AcDb2dVertex
 10
186.461789
 20
441.751083
 30
0.0
  0
VERTEX
  5
453
100
AcDbEntity
  8
_2
  6
CONTINUOUS
 62
     6
100
AcDbVertex
100
AcDb2dVertex
 10
186.682726
 20
438.753677
 30
0.0
  0
VERTEX
  5
454
100
AcDbEntity
  8
_2
  6
CONTINUOUS
 62
     6
100
AcDbVertex
100
AcDb2dVertex
 10
187.092404
 20
435.772061
 30
0.0
  0
VERTEX
  5
455
100
AcDbEntity
  8
_2
  6
CONTINUOUS
 62
     6
100
AcDbVertex
100
AcDb2dVertex
 10
187.638753
 20
432.803942
 30
0.0
  0
VERTEX
  5
456
100
AcDbEntity
  8
_2
  6
CONTINUOUS
 62
     6
100
AcDbVertex
100
AcDb2dVertex
 10
188.269705
 20
429.847027
 30
0.0
  0
VERTEX
  5
457
100
AcDbEntity
  8
_2
  6
CONTINUOUS
 62
     6
100
AcDbVertex
100
AcDb2dVertex
 10
188.933191
 20
426.899023
 30
0.0
  0
VERTEX
  5
458
100
AcDbEntity
  8
_2
  6
CONTINUOUS
 62
     6
100
AcDbVertex
100
AcDb2dVertex
 10
189.577142
 20
423.957636
 30
0.0
  0
VERTEX
  5
459
100
AcDbEntity
  8
_2
  6
CONTINUOUS
 62
     6
100
AcDbVertex
100
AcDb2dVertex
 10
190.149489
 20
421.020574
 30
0.0
  0
VERTEX
  5
45A
100
AcDbEntity
  8
_2
  6
CONTINUOUS
 62
     6
100
AcDbVertex
100
AcDb2dVertex
 10
190.598164
 20
418.085544
 30
0.0
  0
VERTEX
  5
45B
100
AcDbEntity
  8
_2
  6
CONTINUOUS
 62
     6
100
AcDbVertex
100
AcDb2dVertex
 10
190.871098
 20
415.150252
 30
0.0
  0
VERTEX
  5
45C
100
AcDbEntity
  8
_2
  6
CONTINUOUS
 62
     6
100
AcDbVertex
100
AcDb2dVertex
 10
190.916223
 20
412.212404
 30
0.0
  0
VERTEX
  5
45D
100
AcDbEntity
  8
_2
  6
CONTINUOUS
 62
     6
100
AcDbVertex
100
AcDb2dVertex
 10
190.727466
 20
409.516527
 30
0.0
  0
VERTEX
  5
45E
100
AcDbEntity
  8
_2
  6
CONTINUOUS
 62
     6
100
AcDbVertex
100
AcDb2dVertex
 10
190.34978
 20
406.81734
 30
0.0
  0
VERTEX
  5
45F
100
AcDbEntity
  8
_2
  6
CONTINUOUS
 62
     6
100
AcDbVertex
100
AcDb2dVertex
 10
189.829251
 20
404.115605
 30
0.0
  0
VERTEX
  5
460
100
AcDbEntity
  8
_2
  6
CONTINUOUS
 62
     6
100
AcDbVertex
100
AcDb2dVertex
 10
189.211965
 20
401.412081
 30
0.0
  0
VERTEX
  5
461
100
AcDbEntity
  8
_2
  6
CONTINUOUS
 62
     6
100
AcDbVertex
100
AcDb2dVertex
 10
188.544005
 20
398.707531
 30
0.0
  0
VERTEX
  5
462
100
AcDbEntity
  8
_2
  6
CONTINUOUS
 62
     6
100
AcDbVertex
100
AcDb2dVertex
 10
187.871457
 20
396.002715
 30
0.0
  0
VERTEX
  5
463
100
AcDbEntity
  8
_2
  6
CONTINUOUS
 62
     6
100
AcDbVertex
100
AcDb2dVertex
 10
187.240406
 20
393.298394
 30
0.0
  0
VERTEX
  5
464
100
AcDbEntity
  8
_2
  6
CONTINUOUS
 62
     6
100
AcDbVertex
100
AcDb2dVertex
 10
186.696937
 20
390.595329
 30
0.0
  0
VERTEX
  5
465
100
AcDbEntity
  8
_2
  6
CONTINUOUS
 62
     6
100
AcDbVertex
100
AcDb2dVertex
 10
186.287136
 20
387.894282
 30
0.0
  0
VERTEX
  5
466
100
AcDbEntity
  8
_2
  6
CONTINUOUS
 62
     6
100
AcDbVertex
100
AcDb2dVertex
 10
186.057087
 20
385.196013
 30
0.0
  0
VERTEX
  5
467
100
AcDbEntity
  8
_2
  6
CONTINUOUS
 62
     6
100
AcDbVertex
100
AcDb2dVertex
 10
186.052875
 20
382.501283
 30
0.0
  0
VERTEX
  5
468
100
AcDbEntity
  8
_2
  6
CONTINUOUS
 62
     6
100
AcDbVertex
100
AcDb2dVertex
 10
186.26909
 20
380.069806
 30
0.0
  0
VERTEX
  5
469
100
AcDbEntity
  8
_2
  6
CONTINUOUS
 62
     6
100
AcDbVertex
100
AcDb2dVertex
 10
186.665881
 20
377.641405
 30
0.0
  0
VERTEX
  5
46A
100
AcDbEntity
  8
_2
  6
CONTINUOUS
 62
     6
100
AcDbVertex
100
AcDb2dVertex
 10
187.201796
 20
375.215645
 30
0.0
  0
VERTEX
  5
46B
100
AcDbEntity
  8
_2
  6
CONTINUOUS
 62
     6
100
AcDbVertex
100
AcDb2dVertex
 10
187.835382
 20
372.792089
 30
0.0
  0
VERTEX
  5
46C
100
AcDbEntity
  8
_2
  6
CONTINUOUS
 62
     6
100
AcDbVertex
100
AcDb2dVertex
 10
188.525188
 20
370.370304
 30
0.0
  0
VERTEX
  5
46D
100
AcDbEntity
  8
_2
  6
CONTINUOUS
 62
     6
100
AcDbVertex
100
AcDb2dVertex
 10
189.22976
 20
367.949852
 30
0.0
  0
VERTEX
  5
46E
100
AcDbEntity
  8
_2
  6
CONTINUOUS
 62
     6
100
AcDbVertex
100
AcDb2dVertex
 10
189.907647
 20
365.5303
 30
0.0
  0
VERTEX
  5
46F
100
AcDbEntity
  8
_2
  6
CONTINUOUS
 62
     6
100
AcDbVertex
100
AcDb2dVertex
 10
190.517396
 20
363.111211
 30
0.0
  0
VERTEX
  5
470
100
AcDbEntity
  8
_2
  6
CONTINUOUS
 62
     6
100
AcDbVertex
100
AcDb2dVertex
 10
191.017555
 20
360.69215
 30
0.0
  0
VERTEX
  5
471
100
AcDbEntity
  8
_2
  6
CONTINUOUS
 62
     6
100
AcDbVertex
100
AcDb2dVertex
 10
191.366672
 20
358.272682
 30
0.0
  0
VERTEX
  5
472
100
AcDbEntity
  8
_2
  6
CONTINUOUS
 62
     6
100
AcDbVertex
100
AcDb2dVertex
 10
191.523295
 20
355.852371
 30
0.0
  0
VERTEX
  5
473
100
AcDbEntity
  8
_2
  6
CONTINUOUS
 62
     6
100
AcDbVertex
100
AcDb2dVertex
 10
191.450008
 20
353.301937
 30
0.0
  0
VERTEX
  5
474
100
AcDbEntity
  8
_2
  6
CONTINUOUS
 62
     6
100
AcDbVertex
100
AcDb2dVertex
 10
191.1618
 20
350.749947
 30
0.0
  0
VERTEX
  5
475
100
AcDbEntity
  8
_2
  6
CONTINUOUS
 62
     6
100
AcDbVertex
100
AcDb2dVertex
 10
190.70326
 20
348.196259
 30
0.0
  0
VERTEX
  5
476
100
AcDbEntity
  8
_2
  6
CONTINUOUS
 62
     6
100
AcDbVertex
100
AcDb2dVertex
 10
190.118974
 20
345.640734
 30
0.0
  0
VERTEX
  5
477
100
AcDbEntity
  8
_2
  6
CONTINUOUS
 62
     6
100
AcDbVertex
100
AcDb2dVertex
 10
189.45353
 20
343.083233
 30
0.0
  0
VERTEX
  5
478
100
AcDbEntity
  8
_2
  6
CONTINUOUS
 62
     6
100
AcDbVertex
100
AcDb2dVertex
 10
188.751516
 20
340.523617
 30
0.0
  0
VERTEX
  5
479
100
AcDbEntity
  8
_2
  6
CONTINUOUS
 62
     6
100
AcDbVertex
100
AcDb2dVertex
 10
188.057518
 20
337.961745
 30
0.0
  0
VERTEX
  5
47A
100
AcDbEntity
  8
_2
  6
CONTINUOUS
 62
     6
100
AcDbVertex
100
AcDb2dVertex
 10
187.416124
 20
335.397478
 30
0.0
  0
VERTEX
  5
47B
100
AcDbEntity
  8
_2
  6
CONTINUOUS
 62
     6
100
AcDbVertex
100
AcDb2dVertex
 10
186.871922
 20
332.830676
 30
0.0
  0
VERTEX
  5
47C
100
AcDbEntity
  8
_2
  6
CONTINUOUS
 62
     6
100
AcDbVertex
100
AcDb2dVertex
 10
186.469498
 20
330.2612
 30
0.0
  0
VERTEX
  5
47D
100
AcDbEntity
  8
_2
  6
CONTINUOUS
 62
     6
100
AcDbVertex
100
AcDb2dVertex
 10
186.253441
 20
327.68891
 30
0.0
  0
VERTEX
  5
47E
100
AcDbEntity
  8
_2
  6
CONTINUOUS
 62
     6
100
AcDbVertex
100
AcDb2dVertex
 10
186.254226
 20
325.114966
 30
0.0
  0
VERTEX
  5
47F
100
AcDbEntity
  8
_2
  6
CONTINUOUS
 62
     6
100
AcDbVertex
100
AcDb2dVertex
 10
186.44601
 20
322.538576
 30
0.0
  0
VERTEX
  5
480
100
AcDbEntity
  8
_2
  6
CONTINUOUS
 62
     6
100
AcDbVertex
100
AcDb2dVertex
 10
186.789049
 20
319.960247
 30
0.0
  0
VERTEX
  5
481
100
AcDbEntity
  8
_2
  6
CONTINUOUS
 62
     6
100
AcDbVertex
100
AcDb2dVertex
 10
187.243601
 20
317.380484
 30
0.0
  0
VERTEX
  5
482
100
AcDbEntity
  8
_2
  6
CONTINUOUS
 62
     6
100
AcDbVertex
100
AcDb2dVertex
 10
187.769926
 20
314.799792
 30
0.0
  0
VERTEX
  5
483
100
AcDbEntity
  8
_2
  6
CONTINUOUS
 62
     6
100
AcDbVertex
100
AcDb2dVertex
 10
188.32828
 20
312.218677
 30
0.0
  0
VERTEX
  5
484
100
AcDbEntity
  8
_2
  6
CONTINUOUS
 62
     6
100
AcDbVertex
100
AcDb2dVertex
 10
188.878921
 20
309.637645
 30
0.0
  0
VERTEX
  5
485
100
AcDbEntity
  8
_2
  6
CONTINUOUS
 62
     6
100
AcDbVertex
100
AcDb2dVertex
 10
189.382108
 20
307.057202
 30
0.0
  0
VERTEX
  5
486
100
AcDbEntity
  8
_2
  6
CONTINUOUS
 62
     6
100
AcDbVertex
100
AcDb2dVertex
 10
189.798098
 20
304.477852
 30
0.0
  0
VERTEX
  5
487
100
AcDbEntity
  8
_2
  6
CONTINUOUS
 62
     6
100
AcDbVertex
100
AcDb2dVertex
 10
190.087148
 20
301.900102
 30
0.0
  0
VERTEX
  5
488
100
AcDbEntity
  8
_2
  6
CONTINUOUS
 62
     6
100
AcDbVertex
100
AcDb2dVertex
 10
190.209518
 20
299.324456
 30
0.0
  0
VERTEX
  5
489
100
AcDbEntity
  8
_2
  6
CONTINUOUS
 62
     6
100
AcDbVertex
100
AcDb2dVertex
 10
190.0795
 20
295.981827
 30
0.0
  0
VERTEX
  5
48A
100
AcDbEntity
  8
_2
  6
CONTINUOUS
 62
     6
100
AcDbVertex
100
AcDb2dVertex
 10
189.665267
 20
292.643078
 30
0.0
  0
VERTEX
  5
48B
100
AcDbEntity
  8
_2
  6
CONTINUOUS
 62
     6
100
AcDbVertex
100
AcDb2dVertex
 10
189.031044
 20
289.307682
 30
0.0
  0
VERTEX
  5
48C
100
AcDbEntity
  8
_2
  6
CONTINUOUS
 62
     6
100
AcDbVertex
100
AcDb2dVertex
 10
188.241055
 20
285.975114
 30
0.0
  0
VERTEX
  5
48D
100
AcDbEntity
  8
_2
  6
CONTINUOUS
 62
     6
100
AcDbVertex
100
AcDb2dVertex
 10
187.359521
 20
282.644845
 30
0.0
  0
VERTEX
  5
48E
100
AcDbEntity
  8
_2
  6
CONTINUOUS
 62
     6
100
AcDbVertex
100
AcDb2dVertex
 10
186.450667
 20
279.316349
 30
0.0
  0
VERTEX
  5
48F
100
AcDbEntity
  8
_2
  6
CONTINUOUS
 62
     6
100
AcDbVertex
100
AcDb2dVertex
 10
185.578716
 20
275.989101
 30
0.0
  0
VERTEX
  5
490
100
AcDbEntity
  8
_2
  6
CONTINUOUS
 62
     6
100
AcDbVertex
100
AcDb2dVertex
 10
184.807892
 20
272.662572
 30
0.0
  0
VERTEX
  5
491
100
AcDbEntity
  8
_2
  6
CONTINUOUS
 62
     6
100
AcDbVertex
100
AcDb2dVertex
 10
184.202417
 20
269.336237
 30
0.0
  0
VERTEX
  5
492
100
AcDbEntity
  8
_2
  6
CONTINUOUS
 62
     6
100
AcDbVertex
100
AcDb2dVertex
 10
183.826515
 20
266.009569
 30
0.0
  0
VERTEX
  5
493
100
AcDbEntity
  8
_2
  6
CONTINUOUS
 62
     6
100
AcDbVertex
100
AcDb2dVertex
 10
183.744409
 20
262.68204
 30
0.0
  0
VERTEX
  5
494
100
AcDbEntity
  8
_2
  6
CONTINUOUS
 62
     6
100
AcDbVertex
100
AcDb2dVertex
 10
183.910079
 20
260.120737
 30
0.0
  0
VERTEX
  5
495
100
AcDbEntity
  8
_2
  6
CONTINUOUS
 62
     6
100
AcDbVertex
100
AcDb2dVertex
 10
184.247847
 20
257.558517
 30
0.0
  0
VERTEX
  5
496
100
AcDbEntity
  8
_2
  6
CONTINUOUS
 62
     6
100
AcDbVertex
100
AcDb2dVertex
 10
184.717838
 20
254.995282
 30
0.0
  0
VERTEX
  5
497
100
AcDbEntity
  8
_2
  6
CONTINUOUS
 62
     6
100
AcDbVertex
100
AcDb2dVertex
 10
185.280176
 20
252.430938
 30
0.0
  0
VERTEX
  5
498
100
AcDbEntity
  8
_2
  6
CONTINUOUS
 62
     6
100
AcDbVertex
100
AcDb2dVertex
 10
185.894986
 20
249.865387
 30
0.0
  0
VERTEX
  5
499
100
AcDbEntity
  8
_2
  6
CONTINUOUS
 62
     6
100
AcDbVertex
100
AcDb2dVertex
 10
186.522393
 20
247.298534
 30
0.0
  0
VERTEX
  5
49A
100
AcDbEntity
  8
_2
  6
CONTINUOUS
 62
     6
100
AcDbVertex
100
AcDb2dVertex
 10
187.122521
 20
244.730281
 30
0.0
  0
VERTEX
  5
49B
100
AcDbEntity
  8
_2
  6
CONTINUOUS
 62
     6
100
AcDbVertex
100
AcDb2dVertex
 10
187.655494
 20
242.160533
 30
0.0
  0
VERTEX
  5
49C
100
AcDbEntity
  8
_2
  6
CONTINUOUS
 62
     6
100
AcDbVertex
100
AcDb2dVertex
 10
188.081437
 20
239.589193
 30
0.0
  0
VERTEX
  5
49D
100
AcDbEntity
  8
_2
  6
CONTINUOUS
 62
     6
100
AcDbVertex
100
AcDb2dVertex
 10
188.360474
 20
237.016164
 30
0.0
  0
VERTEX
  5
49E
100
AcDbEntity
  8
_2
  6
CONTINUOUS
 62
     6
100
AcDbVertex
100
AcDb2dVertex
 10
188.45273
 20
234.441351
 30
0.0
  0
VERTEX
  5
49F
100
AcDbEntity
  8
_2
  6
CONTINUOUS
 62
     6
100
AcDbVertex
100
AcDb2dVertex
 10
188.342639
 20
231.98864
 30
0.0
  0
VERTEX
  5
4A0
100
AcDbEntity
  8
_2
  6
CONTINUOUS
 62
     6
100
AcDbVertex
100
AcDb2dVertex
 10
188.065197
 20
229.534838
 30
0.0
  0
VERTEX
  5
4A1
100
AcDbEntity
  8
_2
  6
CONTINUOUS
 62
     6
100
AcDbVertex
100
AcDb2dVertex
 10
187.658449
 20
227.080557
 30
0.0
  0
VERTEX
  5
4A2
100
AcDbEntity
  8
_2
  6
CONTINUOUS
 62
     6
100
AcDbVertex
100
AcDb2dVertex
 10
187.160438
 20
224.62641
 30
0.0
  0
VERTEX
  5
4A3
100
AcDbEntity
  8
_2
  6
CONTINUOUS
 62
     6
100
AcDbVertex
100
AcDb2dVertex
 10
186.60921
 20
222.173012
 30
0.0
  0
VERTEX
  5
4A4
100
AcDbEntity
  8
_2
  6
CONTINUOUS
 62
     6
100
AcDbVertex
100
AcDb2dVertex
 10
186.042809
 20
219.720974
 30
0.0
  0
VERTEX
  5
4A5
100
AcDbEntity
  8
_2
  6
CONTINUOUS
 62
     6
100
AcDbVertex
100
AcDb2dVertex
 10
185.499281
 20
217.270909
 30
0.0
  0
VERTEX
  5
4A6
100
AcDbEntity
  8
_2
  6
CONTINUOUS
 62
     6
100
AcDbVertex
100
AcDb2dVertex
 10
185.016669
 20
214.823432
 30
0.0
  0
VERTEX
  5
4A7
100
AcDbEntity
  8
_2
  6
CONTINUOUS
 62
     6
100
AcDbVertex
100
AcDb2dVertex
 10
184.633019
 20
212.379155
 30
0.0
  0
VERTEX
  5
4A8
100
AcDbEntity
  8
_2
  6
CONTINUOUS
 62
     6
100
AcDbVertex
100
AcDb2dVertex
 10
184.386376
 20
209.93869
 30
0.0
  0
VERTEX
  5
4A9
100
AcDbEntity
  8
_2
  6
CONTINUOUS
 62
     6
100
AcDbVertex
100
AcDb2dVertex
 10
184.314783
 20
207.502652
 30
0.0
  0
VERTEX
  5
4AA
100
AcDbEntity
  8
_2
  6
CONTINUOUS
 62
     6
100
AcDbVertex
100
AcDb2dVertex
 10
184.432426
 20
205.191158
 30
0.0
  0
VERTEX
  5
4AB
100
AcDbEntity
  8
_2
  6
CONTINUOUS
 62
     6
100
AcDbVertex
100
AcDb2dVertex
 10
184.707568
 20
202.882421
 30
0.0
  0
VERTEX
  5
4AC
100
AcDbEntity
  8
_2
  6
CONTINUOUS
 62
     6
100
AcDbVertex
100
AcDb2dVertex
 10
185.105133
 20
200.574643
 30
0.0
  0
VERTEX
  5
4AD
100
AcDbEntity
  8
_2
  6
CONTINUOUS
 62
     6
100
AcDbVertex
100
AcDb2dVertex
 10
185.590046
 20
198.266026
 30
0.0
  0
VERTEX
  5
4AE
100
AcDbEntity
  8
_2
  6
CONTINUOUS
 62
     6
100
AcDbVertex
100
AcDb2dVertex
 10
186.127231
 20
195.954772
 30
0.0
  0
VERTEX
  5
4AF
100
AcDbEntity
  8
_2
  6
CONTINUOUS
 62
     6
100
AcDbVertex
100
AcDb2dVertex
 10
186.681614
 20
193.639084
 30
0.0
  0
VERTEX
  5
4B0
100
AcDbEntity
  8
_2
  6
CONTINUOUS
 62
     6
100
AcDbVertex
100
AcDb2dVertex
 10
187.21812
 20
191.317164
 30
0.0
  0
VERTEX
  5
4B1
100
AcDbEntity
  8
_2
  6
CONTINUOUS
 62
     6
100
AcDbVertex
100
AcDb2dVertex
 10
187.701672
 20
188.987216
 30
0.0
  0
VERTEX
  5
4B2
100
AcDbEntity
  8
_2
  6
CONTINUOUS
 62
     6
100
AcDbVertex
100
AcDb2dVertex
 10
188.097196
 20
186.64744
 30
0.0
  0
VERTEX
  5
4B3
100
AcDbEntity
  8
_2
  6
CONTINUOUS
 62
     6
100
AcDbVertex
100
AcDb2dVertex
 10
188.369617
 20
184.29604
 30
0.0
  0
VERTEX
  5
4B4
100
AcDbEntity
  8
_2
  6
CONTINUOUS
 62
     6
100
AcDbVertex
100
AcDb2dVertex
 10
188.483859
 20
181.931218
 30
0.0
  0
VERTEX
  5
4B5
100
AcDbEntity
  8
_2
  6
CONTINUOUS
 62
     6
100
AcDbVertex
100
AcDb2dVertex
 10
188.398141
 20
179.290136
 30
0.0
  0
VERTEX
  5
4B6
100
AcDbEntity
  8
_2
  6
CONTINUOUS
 62
     6
100
AcDbVertex
100
AcDb2dVertex
 10
188.118052
 20
176.637879
 30
0.0
  0
VERTEX
  5
4B7
100
AcDbEntity
  8
_2
  6
CONTINUOUS
 62
     6
100
AcDbVertex
100
AcDb2dVertex
 10
187.687312
 20
173.982025
 30
0.0
  0
VERTEX
  5
4B8
100
AcDbEntity
  8
_2
  6
CONTINUOUS
 62
     6
100
AcDbVertex
100
AcDb2dVertex
 10
187.149641
 20
171.330149
 30
0.0
  0
VERTEX
  5
4B9
100
AcDbEntity
  8
_2
  6
CONTINUOUS
 62
     6
100
AcDbVertex
100
AcDb2dVertex
 10
186.548758
 20
168.689828
 30
0.0
  0
VERTEX
  5
4BA
100
AcDbEntity
  8
_2
  6
CONTINUOUS
 62
     6
100
AcDbVertex
100
AcDb2dVertex
 10
185.928384
 20
166.068639
 30
0.0
  0
VERTEX
  5
4BB
100
AcDbEntity
  8
_2
  6
CONTINUOUS
 62
     6
100
AcDbVertex
100
AcDb2dVertex
 10
185.332238
 20
163.474158
 30
0.0
  0
VERTEX
  5
4BC
100
AcDbEntity
  8
_2
  6
CONTINUOUS
 62
     6
100
AcDbVertex
100
AcDb2dVertex
 10
184.804041
 20
160.913961
 30
0.0
  0
VERTEX
  5
4BD
100
AcDbEntity
  8
_2
  6
CONTINUOUS
 62
     6
100
AcDbVertex
100
AcDb2dVertex
 10
184.387511
 20
158.395625
 30
0.0
  0
VERTEX
  5
4BE
100
AcDbEntity
  8
_2
  6
CONTINUOUS
 62
     6
100
AcDbVertex
100
AcDb2dVertex
 10
184.12637
 20
155.926726
 30
0.0
  0
VERTEX
  5
4BF
100
AcDbEntity
  8
_2
  6
CONTINUOUS
 62
     6
100
AcDbVertex
100
AcDb2dVertex
 10
184.064336
 20
153.51484
 30
0.0
  0
VERTEX
  5
4C0
100
AcDbEntity
  8
_2
  6
CONTINUOUS
 62
     6
100
AcDbVertex
100
AcDb2dVertex
 10
184.25823
 20
150.934335
 30
0.0
  0
VERTEX
  5
4C1
100
AcDbEntity
  8
_2
  6
CONTINUOUS
 62
     6
100
AcDbVertex
100
AcDb2dVertex
 10
184.686817
 20
148.399894
 30
0.0
  0
VERTEX
  5
4C2
100
AcDbEntity
  8
_2
  6
CONTINUOUS
 62
     6
100
AcDbVertex
100
AcDb2dVertex
 10
185.292044
 20
145.879711
 30
0.0
  0
VERTEX
  5
4C3
100
AcDbEntity
  8
_2
  6
CONTINUOUS
 62
     6
100
AcDbVertex
100
AcDb2dVertex
 10
186.015857
 20
143.341983
 30
0.0
  0
VERTEX
  5
4C4
100
AcDbEntity
  8
_2
  6
CONTINUOUS
 62
     6
100
AcDbVertex
100
AcDb2dVertex
 10
186.800203
 20
140.754905
 30
0.0
  0
VERTEX
  5
4C5
100
AcDbEntity
  8
_2
  6
CONTINUOUS
 62
     6
100
AcDbVertex
100
AcDb2dVertex
 10
187.587031
 20
138.086673
 30
0.0
  0
VERTEX
  5
4C6
100
AcDbEntity
  8
_2
  6
CONTINUOUS
 62
     6
100
AcDbVertex
100
AcDb2dVertex
 10
188.318286
 20
135.305483
 30
0.0
  0
VERTEX
  5
4C7
100
AcDbEntity
  8
_2
  6
CONTINUOUS
 62
     6
100
AcDbVertex
100
AcDb2dVertex
 10
188.935916
 20
132.37953
 30
0.0
  0
VERTEX
  5
4C8
100
AcDbEntity
  8
_2
  6
CONTINUOUS
 62
     6
100
AcDbVertex
100
AcDb2dVertex
 10
189.381869
 20
129.277009
 30
0.0
  0
VERTEX
  5
4C9
100
AcDbEntity
  8
_2
  6
CONTINUOUS
 62
     6
100
AcDbVertex
100
AcDb2dVertex
 10
189.59809
 20
125.966117
 30
0.0
  0
VERTEX
  5
4CA
100
AcDbEntity
  8
_2
  6
CONTINUOUS
 62
     6
100
AcDbVertex
100
AcDb2dVertex
 10
189.526528
 20
122.41505
 30
0.0
  0
VERTEX
  5
4CB
100
AcDbEntity
  8
_2
  6
CONTINUOUS
 62
     6
100
AcDbVertex
100
AcDb2dVertex
 10
189.280472
 20
119.761086
 30
0.0
  0
VERTEX
  5
4CC
100
AcDbEntity
  8
_2
  6
CONTINUOUS
 62
     6
100
AcDbVertex
100
AcDb2dVertex
 10
188.896313
 20
117.039293
 30
0.0
  0
VERTEX
  5
4CD
100
AcDbEntity
  8
_2
  6
CONTINUOUS
 62
     6
100
AcDbVertex
100
AcDb2dVertex
 10
188.408085
 20
114.317218
 30
0.0
  0
VERTEX
  5
4CE
100
AcDbEntity
  8
_2
  6
CONTINUOUS
 62
     6
100
AcDbVertex
100
AcDb2dVertex
 10
187.849827
 20
111.662411
 30
0.0
  0
VERTEX
  5
4CF
100
AcDbEntity
  8
_2
  6
CONTINUOUS
 62
     6
100
AcDbVertex
100
AcDb2dVertex
 10
187.255574
 20
109.142421
 30
0.0
  0
VERTEX
  5
4D0
100
AcDbEntity
  8
_2
  6
CONTINUOUS
 62
     6
100
AcDbVertex
100
AcDb2dVertex
 10
186.659362
 20
106.824796
 30
0.0
  0
VERTEX
  5
4D1
100
AcDbEntity
  8
_2
  6
CONTINUOUS
 62
     6
100
AcDbVertex
100
AcDb2dVertex
 10
186.095229
 20
104.777084
 30
0.0
  0
VERTEX
  5
4D2
100
AcDbEntity
  8
_2
  6
CONTINUOUS
 62
     6
100
AcDbVertex
100
AcDb2dVertex
 10
185.59721
 20
103.066834
 30
0.0
  0
VERTEX
  5
4D3
100
AcDbEntity
  8
_2
  6
CONTINUOUS
 62
     6
100
AcDbVertex
100
AcDb2dVertex
 10
185.199342
 20
101.761596
 30
0.0
  0
VERTEX
  5
4D4
100
AcDbEntity
  8
_2
  6
CONTINUOUS
 62
     6
100
AcDbVertex
100
AcDb2dVertex
 10
184.935661
 20
100.928917
 30
0.0
  0
VERTEX
  5
4D5
100
AcDbEntity
  8
_2
  6
CONTINUOUS
 62
     6
100
AcDbVertex
100
AcDb2dVertex
 10
184.840203
 20
100.636347
 30
0.0
  0
SEQEND
  5
4D6
100
AcDbEntity
  8
_2
  6
CONTINUOUS
 62
     6
  0
LINE
  5
4D7
100
AcDbEntity
  8
_2
  6
CONTINUOUS
 62
     7
100
AcDbLine
 10
97.3
 20
511.0
 30
0.0
 11
183.205868
 21
511.0
 31
0.0
  0
LINE
  5
4D8
100
AcDbEntity
  8
_2
  6
CONTINUOUS
 62
     7
100
AcDbLine
 10
187.805868
 20
511.0
 30
0.0
 11
278.7
 21
511.0
 31
0.0
  0
LINE
  5
4D9
100
AcDbEntity
  8
_2
  6
CONTINUOUS
 62
     7
100
AcDbLine
 10
97.3
 20
105.0
 30
0.0
 11
181.956641
 21
105.0
 31
0.0
  0
LINE
  5
4DA
100
AcDbEntity
  8
_2
  6
CONTINUOUS
 62
     7
100
AcDbLine
 10
186.556641
 20
105.0
 30
0.0
 11
278.7
 21
105.0
 31
0.0
  0
LINE
  5
4DB
100
AcDbEntity
  8
_2
  6
CONTINUOUS
 62
     6
100
AcDbLine
 10
360.0
 20
512.0
 30
0.0
 11
361.0
 21
511.0
 31
0.0
  0
LINE
  5
4DC
100
AcDbEntity
  8
_2
  6
CONTINUOUS
 62
     6
100
AcDbLine
 10
360.984979
 20
506.5
 30
0.0
 11
361.690287
 21
502.5
 31
0.0
  0
LINE
  5
4DD
100
AcDbEntity
  8
_2
  6
CONTINUOUS
 62
     6
100
AcDbLine
 10
362.734979
 20
506.5
 30
0.0
 11
363.440287
 21
502.5
 31
0.0
  0
LINE
  5
4DE
100
AcDbEntity
  8
_2
  6
CONTINUOUS
 62
     6
100
AcDbLine
 10
364.484979
 20
506.5
 30
0.0
 11
365.190287
 21
502.5
 31
0.0
  0
LINE
  5
4DF
100
AcDbEntity
  8
_2
  6
CONTINUOUS
 62
     6
100
AcDbLine
 10
366.234979
 20
506.5
 30
0.0
 11
366.940287
 21
502.5
 31
0.0
  0
LINE
  5
4E0
100
AcDbEntity
  8
_2
  6
CONTINUOUS
 62
     6
100
AcDbLine
 10
367.984979
 20
506.5
 30
0.0
 11
368.690287
 21
502.5
 31
0.0
  0
LINE
  5
4E1
100
AcDbEntity
  8
_2
  6
CONTINUOUS
 62
     6
100
AcDbLine
 10
369.734979
 20
506.5
 30
0.0
 11
370.440287
 21
502.5
 31
0.0
  0
LINE
  5
4E2
100
AcDbEntity
  8
_2
  6
CONTINUOUS
 62
     6
100
AcDbLine
 10
371.484979
 20
506.5
 30
0.0
 11
372.190287
 21
502.5
 31
0.0
  0
LINE
  5
4E3
100
AcDbEntity
  8
_2
  6
CONTINUOUS
 62
     6
100
AcDbLine
 10
373.234979
 20
506.5
 30
0.0
 11
373.940287
 21
502.5
 31
0.0
  0
LINE
  5
4E4
100
AcDbEntity
  8
_2
  6
CONTINUOUS
 62
     6
100
AcDbLine
 10
374.984979
 20
506.5
 30
0.0
 11
375.690287
 21
502.5
 31
0.0
  0
LINE
  5
4E5
100
AcDbEntity
  8
_2
  6
CONTINUOUS
 62
     6
100
AcDbLine
 10
376.734979
 20
506.5
 30
0.0
 11
377.440287
 21
502.5
 31
0.0
  0
LINE
  5
4E6
100
AcDbEntity
  8
_2
  6
CONTINUOUS
 62
     6
100
AcDbLine
 10
378.484979
 20
506.5
 30
0.0
 11
379.190287
 21
502.5
 31
0.0
  0
LINE
  5
4E7
100
AcDbEntity
  8
_2
  6
CONTINUOUS
 62
     6
100
AcDbLine
 10
385.460968
 20
503.503074
 30
0.0
 11
388.2
 21
504.5
 31
0.0
  0
ARC
  5
4E8
100
AcDbEntity
  8
_2
  6
CONTINUOUS
 62
     6
100
AcDbCircle
 10
382.040766
 20
512.9
 30
0.0
 40
10.0
100
AcDbArc
 50
270.0
 51
290.0
  0
LINE
  5
4E9
100
AcDbEntity
  8
_2
  6
CONTINUOUS
 62
     6
100
AcDbLine
 10
385.460968
 20
505.496926
 30
0.0
 11
388.2
 21
504.5
 31
0.0
  0
ARC
  5
4EA
100
AcDbEntity
  8
_2
  6
CONTINUOUS
 62
     6
100
AcDbCircle
 10
382.040766
 20
496.1
 30
0.0
 40
10.0
100
AcDbArc
 50
70.0
 51
90.0
  0
LINE
  5
4EB
100
AcDbEntity
  8
_2
  6
CONTINUOUS
 62
     6
100
AcDbLine
 10
380.234979
 20
506.5
 30
0.0
 11
380.940287
 21
502.5
 31
0.0
  0
LINE
  5
4EC
100
AcDbEntity
  8
_2
  6
CONTINUOUS
 62
     6
100
AcDbLine
 10
381.984979
 20
506.5
 30
0.0
 11
382.690287
 21
502.5
 31
0.0
  0
LINE
  5
4ED
100
AcDbEntity
  8
_2
  6
CONTINUOUS
 62
     6
100
AcDbLine
 10
383.764636
 20
506.331808
 30
0.0
 11
384.392672
 21
502.770039
 31
0.0
  0
LINE
  5
4EE
100
AcDbEntity
  8
_2
  6
CONTINUOUS
 62
     6
100
AcDbLine
 10
385.606165
 20
505.812721
 30
0.0
 11
386.04956
 21
503.2981
 31
0.0
  0
LINE
  5
4EF
100
AcDbEntity
  8
_2
  6
CONTINUOUS
 62
     6
100
AcDbLine
 10
387.476178
 20
505.132092
 30
0.0
 11
387.694022
 21
503.896635
 31
0.0
  0
LINE
  5
4F0
100
AcDbEntity
  8
_2
  6
CONTINUOUS
 62
     6
100
AcDbLine
 10
361.0
 20
506.1
 30
0.0
 11
382.040766
 21
506.1
 31
0.0
  0
LINE
  5
4F1
100
AcDbEntity
  8
_2
  6
CONTINUOUS
 62
     6
100
AcDbLine
 10
361.0
 20
502.9
 30
0.0
 11
382.040766
 21
502.9
 31
0.0
  0
LINE
  5
4F2
100
AcDbEntity
  8
_2
  6
CONTINUOUS
 62
     6
100
AcDbLine
 10
358.5
 20
500.5
 30
0.0
 11
358.5
 21
508.5
 31
0.0
  0
LINE
  5
4F3
100
AcDbEntity
  8
_2
  6
CONTINUOUS
 62
     6
100
AcDbLine
 10
358.2
 20
500.5
 30
0.0
 11
358.5
 21
500.5
 31
0.0
  0
LINE
  5
4F4
100
AcDbEntity
  8
_2
  6
CONTINUOUS
 62
     6
100
AcDbLine
 10
358.2
 20
508.5
 30
0.0
 11
358.5
 21
508.5
 31
0.0
  0
LINE
  5
4F5
100
AcDbEntity
  8
_2
  6
CONTINUOUS
 62
     6
100
AcDbLine
 10
358.2
 20
508.5
 30
0.0
 11
358.2
 21
500.5
 31
0.0
  0
LINE
  5
4F6
100
AcDbEntity
  8
_2
  6
CONTINUOUS
 62
     6
100
AcDbLine
 10
360.0
 20
507.0
 30
0.0
 11
358.5
 21
508.5
 31
0.0
  0
LINE
  5
4F7
100
AcDbEntity
  8
_2
  6
CONTINUOUS
 62
     6
100
AcDbLine
 10
360.0
 20
502.0
 30
0.0
 11
358.5
 21
500.5
 31
0.0
  0
LEADER
  5
4F8
100
AcDbEntity
  8
_2
  6
CONTINUOUS
 62
     6
100
AcDbLeader
  3
STANDARD
 73
     3
 74
     1
 75
     0
 40
0.0
 76
     2
 10
382.896846
 20
506.063289
 30
0.0
 10
379.1
 20
521.9
 30
0.0
 77
     6
1001
ACAD
1000
DSTYLE
1002
{
1070
    41
1040
7.0
1070
     5
1000
_EX_NORM
1070
     6
1000
_EX_NORM
1070
     7
1000
_EX_NORM
1070
   341
1005
28
1002
}
  0
TEXT
  5
4F9
100
AcDbEntity
  8
_2
  6
CONTINUOUS
 62
     2
100
AcDbText
 10
350.570531
 20
522.6
 30
0.0
 40
8.0
  1
４×３０
 41
0.819
  7
EXCADSTD
 72
     5
 11
381.770531
 21
522.6
 31
0.0
100
AcDbText
  0
LINE
  5
4FA
100
AcDbEntity
  8
_2
  6
CONTINUOUS
 62
     6
100
AcDbLine
 10
351.070531
 20
521.9
 30
0.0
 11
379.1
 21
521.9
 31
0.0
  0
ENDSEC
  0
SECTION
  2
OBJECTS
  0
DICTIONARY
  5
19
100
AcDbDictionary
  3
ACAD_GROUP
350
1A
  3
ACAD_MLINESTYLE
350
1B
  0
DICTIONARY
  5
1A
102
{ACAD_REACTORS
330
19
102
}
100
AcDbDictionary
  0
DICTIONARY
  5
1B
102
{ACAD_REACTORS
330
19
102
}
100
AcDbDictionary
  3
STANDARD
350
1C
  0
MLINESTYLE
  5
1C
102
{ACAD_REACTORS
330
1B
102
}
100
AcDbMlineStyle
  2
Standard
 70
     0
  3

 62
     0
 51
90.0
 52
90.0
 71
     2
 49
0.5
 62
   256
  6
ByLayer
 49
-0.5
 62
   256
  6
ByLayer
  0
ENDSEC
  0
EOF
